ISO-10303-21;
HEADER;
FILE_DESCRIPTION (( 'STEP AP214' ),
    '1' );
FILE_NAME ('WCP-0566.step',
    '2023-01-02T22:39:48',
    ( '' ),
    ( '' ),
    'SwSTEP 2.0',
    'SolidWorks 2020',
    '' );
FILE_SCHEMA (( 'AUTOMOTIVE_DESIGN' ));
ENDSEC;

DATA;
#1 = PRODUCT_DEFINITION_FORMATION_WITH_SPECIFIED_SOURCE ( 'ANY', '', #157, .NOT_KNOWN. ) ;
#2 = AXIS2_PLACEMENT_3D ( 'NONE', #93, #159, #4 ) ;
#3 = ORIENTED_EDGE ( 'NONE', *, *, #43, .T. ) ;
#4 = DIRECTION ( 'NONE',  ( 0.000000000000000000, 0.000000000000000000, 1.000000000000000000 ) ) ;
#5 = CARTESIAN_POINT ( 'NONE',  ( -1.000000000000000000, 1.200153863164406105E-17, -0.09800000000000000377 ) ) ;
#6 = AXIS2_PLACEMENT_3D ( 'NONE', #57, #115, #176 ) ;
#7 = CYLINDRICAL_SURFACE ( 'NONE', #45, 0.2495000000000000273 ) ;
#8 = DIRECTION ( 'NONE',  ( 1.000000000000000000, 0.000000000000000000, 0.000000000000000000 ) ) ;
#9 = ORIENTED_EDGE ( 'NONE', *, *, #156, .F. ) ;
#10 = FACE_BOUND ( 'NONE', #29, .T. ) ;
#11 = COLOUR_RGB ( '',0.2980392156862745057, 0.2980392156862745057, 0.2980392156862745057 ) ;
#12 = VERTEX_POINT ( 'NONE', #98 ) ;
#13 = ORIENTED_EDGE ( 'NONE', *, *, #81, .F. ) ;
#14 = PRESENTATION_STYLE_ASSIGNMENT (( #149 ) ) ;
#15 = COLOUR_RGB ( '',0.2980392156862745057, 0.2980392156862745057, 0.2980392156862745057 ) ;
#16 = DIRECTION ( 'NONE',  ( 1.000000000000000000, 0.000000000000000000, 0.000000000000000000 ) ) ;
#17 = DIMENSIONAL_EXPONENTS ( 1.000000000000000000, 0.000000000000000000, 0.000000000000000000, 0.000000000000000000, 0.000000000000000000, 0.000000000000000000, 0.000000000000000000 ) ;
#18 = ADVANCED_BREP_SHAPE_REPRESENTATION ( 'WCP-0566', ( #208, #196 ), #117 ) ;
#19 = PRESENTATION_STYLE_ASSIGNMENT (( #110 ) ) ;
#20 = AXIS2_PLACEMENT_3D ( 'NONE', #46, #41, #39 ) ;
#21 = ORIENTED_EDGE ( 'NONE', *, *, #90, .F. ) ;
#22 = CYLINDRICAL_SURFACE ( 'NONE', #2, 0.09800000000000000377 ) ;
#23 = LENGTH_MEASURE_WITH_UNIT ( LENGTH_MEASURE( 0.02539999999999999897 ), #54 );
#24 = FACE_OUTER_BOUND ( 'NONE', #84, .T. ) ;
#25 = UNCERTAINTY_MEASURE_WITH_UNIT (LENGTH_MEASURE( 1.000000000000000082E-05 ), #160, 'distance_accuracy_value', 'NONE');
#26 = EDGE_LOOP ( 'NONE', ( #158, #21 ) ) ;
#27 = CIRCLE ( 'NONE', #50, 0.2495000000000000273 ) ;
#28 = VERTEX_POINT ( 'NONE', #161 ) ;
#29 = EDGE_LOOP ( 'NONE', ( #183, #85 ) ) ;
#30 = FACE_BOUND ( 'NONE', #48, .T. ) ;
#31 = ORIENTED_EDGE ( 'NONE', *, *, #147, .T. ) ;
#32 = PRODUCT_DEFINITION_CONTEXT ( 'detailed design', #61, 'design' ) ;
#33 = FACE_OUTER_BOUND ( 'NONE', #26, .T. ) ;
#34 = EDGE_CURVE ( 'NONE', #142, #12, #58, .T. ) ;
#35 = APPLICATION_PROTOCOL_DEFINITION ( 'draft international standard', 'automotive_design', 1998, #61 ) ;
#36 = SURFACE_SIDE_STYLE ('',( #114 ) ) ;
#37 = ADVANCED_FACE ( 'NONE', ( #96 ), #7, .T. ) ;
#38 = STYLED_ITEM ( 'NONE', ( #19 ), #18 ) ;
#39 = DIRECTION ( 'NONE',  ( 0.000000000000000000, 0.000000000000000000, -1.000000000000000000 ) ) ;
#40 = FILL_AREA_STYLE_COLOUR ( '', #15 ) ;
#41 = DIRECTION ( 'NONE',  ( 1.000000000000000000, 0.000000000000000000, 0.000000000000000000 ) ) ;
#42 = CARTESIAN_POINT ( 'NONE',  ( 1.000000000000000000, 3.055493763872646882E-17, -0.2495000000000000273 ) ) ;
#43 = EDGE_CURVE ( 'NONE', #142, #131, #27, .T. ) ;
#44 = CARTESIAN_POINT ( 'NONE',  ( 1.000000000000000000, 1.200153863164406105E-17, -0.09800000000000000377 ) ) ;
#45 = AXIS2_PLACEMENT_3D ( 'NONE', #139, #191, #76 ) ;
#46 = CARTESIAN_POINT ( 'NONE',  ( 1.000000000000000000, 0.000000000000000000, 0.000000000000000000 ) ) ;
#47 = ORIENTED_EDGE ( 'NONE', *, *, #202, .F. ) ;
#48 = EDGE_LOOP ( 'NONE', ( #141, #94 ) ) ;
#49 = DIRECTION ( 'NONE',  ( -1.000000000000000000, -0.000000000000000000, -0.000000000000000000 ) ) ;
#50 = AXIS2_PLACEMENT_3D ( 'NONE', #130, #62, #209 ) ;
#51 = FILL_AREA_STYLE_COLOUR ( '', #11 ) ;
#52 =( NAMED_UNIT ( * ) SI_UNIT ( $, .STERADIAN. ) SOLID_ANGLE_UNIT ( ) );
#53 = CIRCLE ( 'NONE', #20, 0.09800000000000000377 ) ;
#54 =( LENGTH_UNIT ( ) NAMED_UNIT ( * ) SI_UNIT ( $, .METRE. ) );
#55 = DIRECTION ( 'NONE',  ( -1.000000000000000000, -0.000000000000000000, -0.000000000000000000 ) ) ;
#56 = CIRCLE ( 'NONE', #187, 0.2495000000000000273 ) ;
#57 = CARTESIAN_POINT ( 'NONE',  ( 1.000000000000000000, 0.000000000000000000, 0.000000000000000000 ) ) ;
#58 = LINE ( 'NONE', #42, #105 ) ;
#59 = PRODUCT_DEFINITION ( 'UNKNOWN', '', #1, #32 ) ;
#60 = DIRECTION ( 'NONE',  ( 0.000000000000000000, 0.000000000000000000, 1.000000000000000000 ) ) ;
#61 = APPLICATION_CONTEXT ( 'automotive_design' ) ;
#62 = DIRECTION ( 'NONE',  ( 1.000000000000000000, 0.000000000000000000, 0.000000000000000000 ) ) ;
#63 = VERTEX_POINT ( 'NONE', #44 ) ;
#64 = CARTESIAN_POINT ( 'NONE',  ( 1.000000000000000000, 0.000000000000000000, 0.09800000000000000377 ) ) ;
#65 = ADVANCED_FACE ( 'NONE', ( #215 ), #162, .T. ) ;
#66 = DIRECTION ( 'NONE',  ( 0.000000000000000000, 0.000000000000000000, -1.000000000000000000 ) ) ;
#67 = ORIENTED_EDGE ( 'NONE', *, *, #34, .F. ) ;
#68 =( CONVERSION_BASED_UNIT ( 'INCH', #198 ) LENGTH_UNIT ( ) NAMED_UNIT ( #107 ) );
#69 = EDGE_CURVE ( 'NONE', #131, #142, #75, .T. ) ;
#70 = PRODUCT_CONTEXT ( 'NONE', #189, 'mechanical' ) ;
#71 =( GEOMETRIC_REPRESENTATION_CONTEXT ( 3 ) GLOBAL_UNCERTAINTY_ASSIGNED_CONTEXT ( ( #25 ) ) GLOBAL_UNIT_ASSIGNED_CONTEXT ( ( #160, #108, #52 ) ) REPRESENTATION_CONTEXT ( 'NONE', 'WORKASPACE' ) );
#72 = PRODUCT_DEFINITION_SHAPE ( 'NONE', 'NONE',  #59 ) ;
#73 = EDGE_LOOP ( 'NONE', ( #67, #80, #31, #217 ) ) ;
#74 = CARTESIAN_POINT ( 'NONE',  ( 1.000000000000000000, 3.055493763872646882E-17, -0.2495000000000000273 ) ) ;
#75 = CIRCLE ( 'NONE', #88, 0.2495000000000000273 ) ;
#76 = DIRECTION ( 'NONE',  ( 0.000000000000000000, 0.000000000000000000, 1.000000000000000000 ) ) ;
#77 = FILL_AREA_STYLE ('',( #40 ) ) ;
#78 = CARTESIAN_POINT ( 'NONE',  ( 1.000000000000000000, 0.000000000000000000, 0.000000000000000000 ) ) ;
#79 = DIRECTION ( 'NONE',  ( 0.000000000000000000, 0.000000000000000000, -1.000000000000000000 ) ) ;
#80 = ORIENTED_EDGE ( 'NONE', *, *, #69, .F. ) ;
#81 = EDGE_CURVE ( 'NONE', #28, #120, #153, .T. ) ;
#82 = DIRECTION ( 'NONE',  ( 1.000000000000000000, 0.000000000000000000, 0.000000000000000000 ) ) ;
#83 = FILL_AREA_STYLE ('',( #51 ) ) ;
#84 = EDGE_LOOP ( 'NONE', ( #127, #134, #13, #9 ) ) ;
#85 = ORIENTED_EDGE ( 'NONE', *, *, #109, .T. ) ;
#86 = VECTOR ( 'NONE', #133, 39.37007874015748143 ) ;
#87 = PLANE ( 'NONE',  #190 ) ;
#88 = AXIS2_PLACEMENT_3D ( 'NONE', #128, #197, #214 ) ;
#89 = CARTESIAN_POINT ( 'NONE',  ( 0.000000000000000000, 0.000000000000000000, 0.000000000000000000 ) ) ;
#90 = EDGE_CURVE ( 'NONE', #12, #220, #138, .T. ) ;
#91 = AXIS2_PLACEMENT_3D ( 'NONE', #118, #179, #188 ) ;
#92 = ORIENTED_EDGE ( 'NONE', *, *, #69, .T. ) ;
#93 = CARTESIAN_POINT ( 'NONE',  ( 1.000000000000000000, 0.000000000000000000, 0.000000000000000000 ) ) ;
#94 = ORIENTED_EDGE ( 'NONE', *, *, #111, .F. ) ;
#95 = AXIS2_PLACEMENT_3D ( 'NONE', #78, #55, #60 ) ;
#96 = FACE_OUTER_BOUND ( 'NONE', #180, .T. ) ;
#97 = UNCERTAINTY_MEASURE_WITH_UNIT (LENGTH_MEASURE( 1.000000000000000082E-05 ), #68, 'distance_accuracy_value', 'NONE');
#98 = CARTESIAN_POINT ( 'NONE',  ( -1.000000000000000000, 3.055493763872646882E-17, -0.2495000000000000273 ) ) ;
#99 = ORIENTED_EDGE ( 'NONE', *, *, #109, .F. ) ;
#100 = DIRECTION ( 'NONE',  ( 0.000000000000000000, 0.000000000000000000, -1.000000000000000000 ) ) ;
#101 = DIRECTION ( 'NONE',  ( -1.000000000000000000, -0.000000000000000000, -0.000000000000000000 ) ) ;
#102 = EDGE_LOOP ( 'NONE', ( #47, #171, #164, #99 ) ) ;
#103 = EDGE_CURVE ( 'NONE', #145, #63, #201, .T. ) ;
#104 = PLANE ( 'NONE',  #178 ) ;
#105 = VECTOR ( 'NONE', #126, 39.37007874015748143 ) ;
#106 = AXIS2_PLACEMENT_3D ( 'NONE', #144, #216, #177 ) ;
#107 = DIMENSIONAL_EXPONENTS ( 1.000000000000000000, 0.000000000000000000, 0.000000000000000000, 0.000000000000000000, 0.000000000000000000, 0.000000000000000000, 0.000000000000000000 ) ;
#108 =( NAMED_UNIT ( * ) PLANE_ANGLE_UNIT ( ) SI_UNIT ( $, .RADIAN. ) );
#109 = EDGE_CURVE ( 'NONE', #120, #28, #205, .T. ) ;
#110 = SURFACE_STYLE_USAGE ( .BOTH. , #36 ) ;
#111 = EDGE_CURVE ( 'NONE', #63, #145, #53, .T. ) ;
#112 = VECTOR ( 'NONE', #49, 39.37007874015748143 ) ;
#113 = CARTESIAN_POINT ( 'NONE',  ( 1.000000000000000000, 0.000000000000000000, 0.2495000000000000273 ) ) ;
#114 = SURFACE_STYLE_FILL_AREA ( #77 ) ;
#115 = DIRECTION ( 'NONE',  ( -1.000000000000000000, -0.000000000000000000, -0.000000000000000000 ) ) ;
#116 = DIRECTION ( 'NONE',  ( 0.000000000000000000, 0.000000000000000000, -1.000000000000000000 ) ) ;
#117 =( GEOMETRIC_REPRESENTATION_CONTEXT ( 3 ) GLOBAL_UNCERTAINTY_ASSIGNED_CONTEXT ( ( #194 ) ) GLOBAL_UNIT_ASSIGNED_CONTEXT ( ( #121, #182, #166 ) ) REPRESENTATION_CONTEXT ( 'NONE', 'WORKASPACE' ) );
#118 = CARTESIAN_POINT ( 'NONE',  ( -1.000000000000000000, 0.000000000000000000, 0.000000000000000000 ) ) ;
#119 = CARTESIAN_POINT ( 'NONE',  ( 1.000000000000000000, 1.200153863164406105E-17, -0.09800000000000000377 ) ) ;
#120 = VERTEX_POINT ( 'NONE', #5 ) ;
#121 =( CONVERSION_BASED_UNIT ( 'INCH', #203 ) LENGTH_UNIT ( ) NAMED_UNIT ( #174 ) );
#122 = DIRECTION ( 'NONE',  ( 0.000000000000000000, 0.000000000000000000, -1.000000000000000000 ) ) ;
#123 = LINE ( 'NONE', #64, #213 ) ;
#124 =( NAMED_UNIT ( * ) SI_UNIT ( $, .STERADIAN. ) SOLID_ANGLE_UNIT ( ) );
#125 = DIRECTION ( 'NONE',  ( 1.000000000000000000, 0.000000000000000000, 0.000000000000000000 ) ) ;
#126 = DIRECTION ( 'NONE',  ( -1.000000000000000000, -0.000000000000000000, -0.000000000000000000 ) ) ;
#127 = ORIENTED_EDGE ( 'NONE', *, *, #103, .T. ) ;
#128 = CARTESIAN_POINT ( 'NONE',  ( 1.000000000000000000, 0.000000000000000000, 0.000000000000000000 ) ) ;
#129 =( GEOMETRIC_REPRESENTATION_CONTEXT ( 3 ) GLOBAL_UNCERTAINTY_ASSIGNED_CONTEXT ( ( #97 ) ) GLOBAL_UNIT_ASSIGNED_CONTEXT ( ( #68, #204, #124 ) ) REPRESENTATION_CONTEXT ( 'NONE', 'WORKASPACE' ) );
#130 = CARTESIAN_POINT ( 'NONE',  ( 1.000000000000000000, 0.000000000000000000, 0.000000000000000000 ) ) ;
#131 = VERTEX_POINT ( 'NONE', #113 ) ;
#132 = CARTESIAN_POINT ( 'NONE',  ( -1.000000000000000000, 0.000000000000000000, 0.000000000000000000 ) ) ;
#133 = DIRECTION ( 'NONE',  ( -1.000000000000000000, -0.000000000000000000, -0.000000000000000000 ) ) ;
#134 = ORIENTED_EDGE ( 'NONE', *, *, #202, .T. ) ;
#135 = DIRECTION ( 'NONE',  ( 1.000000000000000000, 0.000000000000000000, 0.000000000000000000 ) ) ;
#136 = LINE ( 'NONE', #186, #112 ) ;
#137 = ADVANCED_FACE ( 'NONE', ( #173 ), #22, .F. ) ;
#138 = CIRCLE ( 'NONE', #91, 0.2495000000000000273 ) ;
#139 = CARTESIAN_POINT ( 'NONE',  ( 1.000000000000000000, 0.000000000000000000, 0.000000000000000000 ) ) ;
#140 = CYLINDRICAL_SURFACE ( 'NONE', #6, 0.09800000000000000377 ) ;
#141 = ORIENTED_EDGE ( 'NONE', *, *, #103, .F. ) ;
#142 = VERTEX_POINT ( 'NONE', #74 ) ;
#143 = ADVANCED_FACE ( 'NONE', ( #24 ), #140, .F. ) ;
#144 = CARTESIAN_POINT ( 'NONE',  ( -1.000000000000000000, 0.000000000000000000, 0.000000000000000000 ) ) ;
#145 = VERTEX_POINT ( 'NONE', #151 ) ;
#146 = CLOSED_SHELL ( 'NONE', ( #143, #37, #170, #150, #65, #137 ) ) ;
#147 = EDGE_CURVE ( 'NONE', #131, #220, #136, .T. ) ;
#148 = CARTESIAN_POINT ( 'NONE',  ( -1.000000000000000000, 0.000000000000000000, 0.2495000000000000273 ) ) ;
#149 = SURFACE_STYLE_USAGE ( .BOTH. , #154 ) ;
#150 = ADVANCED_FACE ( 'NONE', ( #33, #10 ), #87, .F. ) ;
#151 = CARTESIAN_POINT ( 'NONE',  ( 1.000000000000000000, 0.000000000000000000, 0.09800000000000000377 ) ) ;
#152 = CARTESIAN_POINT ( 'NONE',  ( 1.000000000000000000, 0.000000000000000000, 0.000000000000000000 ) ) ;
#153 = CIRCLE ( 'NONE', #155, 0.09800000000000000377 ) ;
#154 = SURFACE_SIDE_STYLE ('',( #199 ) ) ;
#155 = AXIS2_PLACEMENT_3D ( 'NONE', #192, #125, #116 ) ;
#156 = EDGE_CURVE ( 'NONE', #145, #28, #123, .T. ) ;
#157 = PRODUCT ( 'WCP-0566', 'WCP-0566', '', ( #70 ) ) ;
#158 = ORIENTED_EDGE ( 'NONE', *, *, #175, .F. ) ;
#159 = DIRECTION ( 'NONE',  ( -1.000000000000000000, -0.000000000000000000, -0.000000000000000000 ) ) ;
#160 =( CONVERSION_BASED_UNIT ( 'INCH', #23 ) LENGTH_UNIT ( ) NAMED_UNIT ( #17 ) );
#161 = CARTESIAN_POINT ( 'NONE',  ( -1.000000000000000000, 0.000000000000000000, 0.09800000000000000377 ) ) ;
#162 = CYLINDRICAL_SURFACE ( 'NONE', #95, 0.2495000000000000273 ) ;
#163 = CARTESIAN_POINT ( 'NONE',  ( 1.000000000000000000, 0.000000000000000000, 0.000000000000000000 ) ) ;
#164 = ORIENTED_EDGE ( 'NONE', *, *, #156, .T. ) ;
#165 = CARTESIAN_POINT ( 'NONE',  ( -1.000000000000000000, 0.000000000000000000, 0.000000000000000000 ) ) ;
#166 =( NAMED_UNIT ( * ) SI_UNIT ( $, .STERADIAN. ) SOLID_ANGLE_UNIT ( ) );
#167 = LINE ( 'NONE', #119, #86 ) ;
#168 = MECHANICAL_DESIGN_GEOMETRIC_PRESENTATION_REPRESENTATION (  '', ( #38 ), #71 ) ;
#169 = SHAPE_DEFINITION_REPRESENTATION ( #72, #18 ) ;
#170 = ADVANCED_FACE ( 'NONE', ( #222, #30 ), #104, .T. ) ;
#171 = ORIENTED_EDGE ( 'NONE', *, *, #111, .T. ) ;
#172 = AXIS2_PLACEMENT_3D ( 'NONE', #163, #8, #79 ) ;
#173 = FACE_OUTER_BOUND ( 'NONE', #102, .T. ) ;
#174 = DIMENSIONAL_EXPONENTS ( 1.000000000000000000, 0.000000000000000000, 0.000000000000000000, 0.000000000000000000, 0.000000000000000000, 0.000000000000000000, 0.000000000000000000 ) ;
#175 = EDGE_CURVE ( 'NONE', #220, #12, #56, .T. ) ;
#176 = DIRECTION ( 'NONE',  ( 0.000000000000000000, 0.000000000000000000, 1.000000000000000000 ) ) ;
#177 = DIRECTION ( 'NONE',  ( 0.000000000000000000, 0.000000000000000000, -1.000000000000000000 ) ) ;
#178 = AXIS2_PLACEMENT_3D ( 'NONE', #152, #219, #100 ) ;
#179 = DIRECTION ( 'NONE',  ( 1.000000000000000000, 0.000000000000000000, 0.000000000000000000 ) ) ;
#180 = EDGE_LOOP ( 'NONE', ( #195, #181, #211, #200 ) ) ;
#181 = ORIENTED_EDGE ( 'NONE', *, *, #34, .T. ) ;
#182 =( NAMED_UNIT ( * ) PLANE_ANGLE_UNIT ( ) SI_UNIT ( $, .RADIAN. ) );
#183 = ORIENTED_EDGE ( 'NONE', *, *, #81, .T. ) ;
#184 = PRESENTATION_LAYER_ASSIGNMENT (  '', '', ( #38 ) ) ;
#185 =( LENGTH_UNIT ( ) NAMED_UNIT ( * ) SI_UNIT ( $, .METRE. ) );
#186 = CARTESIAN_POINT ( 'NONE',  ( 1.000000000000000000, 0.000000000000000000, 0.2495000000000000273 ) ) ;
#187 = AXIS2_PLACEMENT_3D ( 'NONE', #165, #135, #66 ) ;
#188 = DIRECTION ( 'NONE',  ( 0.000000000000000000, 0.000000000000000000, -1.000000000000000000 ) ) ;
#189 = APPLICATION_CONTEXT ( 'automotive_design' ) ;
#190 = AXIS2_PLACEMENT_3D ( 'NONE', #132, #82, #122 ) ;
#191 = DIRECTION ( 'NONE',  ( -1.000000000000000000, -0.000000000000000000, -0.000000000000000000 ) ) ;
#192 = CARTESIAN_POINT ( 'NONE',  ( -1.000000000000000000, 0.000000000000000000, 0.000000000000000000 ) ) ;
#193 = EDGE_LOOP ( 'NONE', ( #92, #3 ) ) ;
#194 = UNCERTAINTY_MEASURE_WITH_UNIT (LENGTH_MEASURE( 1.000000000000000082E-05 ), #121, 'distance_accuracy_value', 'NONE');
#195 = ORIENTED_EDGE ( 'NONE', *, *, #43, .F. ) ;
#196 = AXIS2_PLACEMENT_3D ( 'NONE', #89, #207, #16 ) ;
#197 = DIRECTION ( 'NONE',  ( 1.000000000000000000, 0.000000000000000000, 0.000000000000000000 ) ) ;
#198 = LENGTH_MEASURE_WITH_UNIT ( LENGTH_MEASURE( 0.02539999999999999897 ), #185 );
#199 = SURFACE_STYLE_FILL_AREA ( #83 ) ;
#200 = ORIENTED_EDGE ( 'NONE', *, *, #147, .F. ) ;
#201 = CIRCLE ( 'NONE', #172, 0.09800000000000000377 ) ;
#202 = EDGE_CURVE ( 'NONE', #63, #120, #167, .T. ) ;
#203 = LENGTH_MEASURE_WITH_UNIT ( LENGTH_MEASURE( 0.02539999999999999897 ), #218 );
#204 =( NAMED_UNIT ( * ) PLANE_ANGLE_UNIT ( ) SI_UNIT ( $, .RADIAN. ) );
#205 = CIRCLE ( 'NONE', #106, 0.09800000000000000377 ) ;
#206 = MECHANICAL_DESIGN_GEOMETRIC_PRESENTATION_REPRESENTATION (  '', ( #221 ), #129 ) ;
#207 = DIRECTION ( 'NONE',  ( 0.000000000000000000, 0.000000000000000000, 1.000000000000000000 ) ) ;
#208 = MANIFOLD_SOLID_BREP ( 'Boss-Extrude1', #146 ) ;
#209 = DIRECTION ( 'NONE',  ( 0.000000000000000000, 0.000000000000000000, -1.000000000000000000 ) ) ;
#210 = APPLICATION_PROTOCOL_DEFINITION ( 'draft international standard', 'automotive_design', 1998, #189 ) ;
#211 = ORIENTED_EDGE ( 'NONE', *, *, #90, .T. ) ;
#212 = PRODUCT_RELATED_PRODUCT_CATEGORY ( 'part', '', ( #157 ) ) ;
#213 = VECTOR ( 'NONE', #101, 39.37007874015748143 ) ;
#214 = DIRECTION ( 'NONE',  ( 0.000000000000000000, 0.000000000000000000, -1.000000000000000000 ) ) ;
#215 = FACE_OUTER_BOUND ( 'NONE', #73, .T. ) ;
#216 = DIRECTION ( 'NONE',  ( 1.000000000000000000, 0.000000000000000000, 0.000000000000000000 ) ) ;
#217 = ORIENTED_EDGE ( 'NONE', *, *, #175, .T. ) ;
#218 =( LENGTH_UNIT ( ) NAMED_UNIT ( * ) SI_UNIT ( $, .METRE. ) );
#219 = DIRECTION ( 'NONE',  ( 1.000000000000000000, 0.000000000000000000, 0.000000000000000000 ) ) ;
#220 = VERTEX_POINT ( 'NONE', #148 ) ;
#221 = STYLED_ITEM ( 'NONE', ( #14 ), #208 ) ;
#222 = FACE_OUTER_BOUND ( 'NONE', #193, .T. ) ;
#223 = PRESENTATION_LAYER_ASSIGNMENT (  '', '', ( #221 ) ) ;
ENDSEC;
END-ISO-10303-21;
