ISO-10303-21;
HEADER;
FILE_DESCRIPTION (( 'STEP AP214' ),
    '1' );
FILE_NAME ('WCP-0472 Rev1.STEP',
    '2023-11-16T23:18:30',
    ( '' ),
    ( '' ),
    'SwSTEP 2.0',
    'SolidWorks 2022',
    '' );
FILE_SCHEMA (( 'AUTOMOTIVE_DESIGN' ));
ENDSEC;

DATA;
#1 =( NAMED_UNIT ( * ) SI_UNIT ( $, .STERADIAN. ) SOLID_ANGLE_UNIT ( ) );
#2 = ORIENTED_EDGE ( 'NONE', *, *, #177, .F. ) ;
#3 = EDGE_CURVE ( 'NONE', #330, #30, #44, .T. ) ;
#4 = VECTOR ( 'NONE', #208, 39.37007874015748143 ) ;
#5 =( GEOMETRIC_REPRESENTATION_CONTEXT ( 3 ) GLOBAL_UNCERTAINTY_ASSIGNED_CONTEXT ( ( #301 ) ) GLOBAL_UNIT_ASSIGNED_CONTEXT ( ( #59, #106, #1 ) ) REPRESENTATION_CONTEXT ( 'NONE', 'WORKASPACE' ) );
#6 = EDGE_CURVE ( 'NONE', #35, #336, #56, .T. ) ;
#7 = APPLICATION_PROTOCOL_DEFINITION ( 'draft international standard', 'automotive_design', 1998, #155 ) ;
#8 = DIRECTION ( 'NONE',  ( -1.000000000000000000, -0.000000000000000000, -0.000000000000000000 ) ) ;
#9 = EDGE_LOOP ( 'NONE', ( #85, #186, #23, #148 ) ) ;
#10 = UNCERTAINTY_MEASURE_WITH_UNIT (LENGTH_MEASURE( 1.000000000000000082E-05 ), #285, 'distance_accuracy_value', 'NONE');
#11 = DIRECTION ( 'NONE',  ( 0.000000000000000000, 1.000000000000000000, 0.000000000000000000 ) ) ;
#12 = MECHANICAL_DESIGN_GEOMETRIC_PRESENTATION_REPRESENTATION (  '', ( #98 ), #230 ) ;
#13 = DIRECTION ( 'NONE',  ( 0.000000000000000000, 1.000000000000000000, 0.000000000000000000 ) ) ;
#14 = ORIENTED_EDGE ( 'NONE', *, *, #259, .F. ) ;
#15 = EDGE_CURVE ( 'NONE', #333, #104, #108, .T. ) ;
#16 = DIRECTION ( 'NONE',  ( 0.000000000000000000, -1.000000000000000000, 0.000000000000000000 ) ) ;
#17 = PRODUCT_DEFINITION_CONTEXT ( 'detailed design', #214, 'design' ) ;
#18 = EDGE_LOOP ( 'NONE', ( #221, #14, #88, #181 ) ) ;
#19 = COLOUR_RGB ( '',0.8666666666666666963, 0.9098039215686274384, 1.000000000000000000 ) ;
#20 = SURFACE_STYLE_FILL_AREA ( #282 ) ;
#21 = ORIENTED_EDGE ( 'NONE', *, *, #284, .T. ) ;
#22 = CARTESIAN_POINT ( 'NONE',  ( 29.50000000000000000, -1.500000000000000222, 1.500000000000000222 ) ) ;
#23 = ORIENTED_EDGE ( 'NONE', *, *, #3, .T. ) ;
#24 = EDGE_CURVE ( 'NONE', #30, #287, #39, .T. ) ;
#25 = DIRECTION ( 'NONE',  ( 0.000000000000000000, 0.000000000000000000, 1.000000000000000000 ) ) ;
#26 = ADVANCED_FACE ( 'NONE', ( #141 ), #189, .F. ) ;
#27 = VECTOR ( 'NONE', #291, 39.37007874015748143 ) ;
#28 = FACE_BOUND ( 'NONE', #347, .T. ) ;
#29 = FACE_OUTER_BOUND ( 'NONE', #62, .T. ) ;
#30 = VERTEX_POINT ( 'NONE', #169 ) ;
#31 = EDGE_CURVE ( 'NONE', #215, #336, #107, .T. ) ;
#32 = CARTESIAN_POINT ( 'NONE',  ( 29.50000000000000000, 0.000000000000000000, -1.375000000000000222 ) ) ;
#33 = VECTOR ( 'NONE', #142, 39.37007874015748143 ) ;
#34 = LINE ( 'NONE', #254, #4 ) ;
#35 = VERTEX_POINT ( 'NONE', #164 ) ;
#36 = FILL_AREA_STYLE ('',( #266 ) ) ;
#37 = LINE ( 'NONE', #42, #33 ) ;
#38 = ADVANCED_FACE ( 'NONE', ( #144 ), #57, .F. ) ;
#39 = LINE ( 'NONE', #112, #237 ) ;
#40 = SHAPE_DEFINITION_REPRESENTATION ( #70, #332 ) ;
#41 = STYLED_ITEM ( 'NONE', ( #268 ), #332 ) ;
#42 = CARTESIAN_POINT ( 'NONE',  ( 29.50000000000000000, -1.500000000000000222, 1.500000000000000222 ) ) ;
#43 = ORIENTED_EDGE ( 'NONE', *, *, #31, .T. ) ;
#44 = LINE ( 'NONE', #218, #304 ) ;
#45 = AXIS2_PLACEMENT_3D ( 'NONE', #322, #130, #187 ) ;
#46 = SURFACE_SIDE_STYLE ('',( #20 ) ) ;
#47 = CARTESIAN_POINT ( 'NONE',  ( -29.50000000000000000, 1.500000000000000222, 1.500000000000000222 ) ) ;
#48 = CARTESIAN_POINT ( 'NONE',  ( 29.50000000000000000, 0.000000000000000000, 0.000000000000000000 ) ) ;
#49 = ORIENTED_EDGE ( 'NONE', *, *, #263, .F. ) ;
#50 = DIRECTION ( 'NONE',  ( -1.000000000000000000, -0.000000000000000000, -0.000000000000000000 ) ) ;
#51 = DIRECTION ( 'NONE',  ( -0.000000000000000000, 1.000000000000000000, 0.000000000000000000 ) ) ;
#52 = LINE ( 'NONE', #338, #339 ) ;
#53 = ADVANCED_FACE ( 'NONE', ( #245 ), #60, .T. ) ;
#54 = CARTESIAN_POINT ( 'NONE',  ( -29.50000000000000000, -1.500000000000000222, 1.500000000000000222 ) ) ;
#55 = CARTESIAN_POINT ( 'NONE',  ( 29.50000000000000000, 1.375000000000000222, -1.375000000000000222 ) ) ;
#56 = LINE ( 'NONE', #244, #329 ) ;
#57 = PLANE ( 'NONE',  #61 ) ;
#58 = PRODUCT_DEFINITION ( 'UNKNOWN', '', #279, #17 ) ;
#59 =( CONVERSION_BASED_UNIT ( 'INCH', #75 ) LENGTH_UNIT ( ) NAMED_UNIT ( #66 ) );
#60 = PLANE ( 'NONE',  #135 ) ;
#61 = AXIS2_PLACEMENT_3D ( 'NONE', #219, #165, #267 ) ;
#62 = EDGE_LOOP ( 'NONE', ( #105, #229, #238, #321 ) ) ;
#63 = EDGE_CURVE ( 'NONE', #326, #119, #37, .T. ) ;
#64 = DIRECTION ( 'NONE',  ( 0.000000000000000000, 0.000000000000000000, 1.000000000000000000 ) ) ;
#65 = DIRECTION ( 'NONE',  ( 1.000000000000000000, 0.000000000000000000, 0.000000000000000000 ) ) ;
#66 = DIMENSIONAL_EXPONENTS ( 1.000000000000000000, 0.000000000000000000, 0.000000000000000000, 0.000000000000000000, 0.000000000000000000, 0.000000000000000000, 0.000000000000000000 ) ;
#67 = PRESENTATION_LAYER_ASSIGNMENT (  '', '', ( #98 ) ) ;
#68 = CARTESIAN_POINT ( 'NONE',  ( 29.50000000000000000, -1.500000000000000222, 1.500000000000000222 ) ) ;
#69 = ORIENTED_EDGE ( 'NONE', *, *, #63, .F. ) ;
#70 = PRODUCT_DEFINITION_SHAPE ( 'NONE', 'NONE',  #58 ) ;
#71 = DIRECTION ( 'NONE',  ( -0.000000000000000000, -1.000000000000000000, -0.000000000000000000 ) ) ;
#72 = ORIENTED_EDGE ( 'NONE', *, *, #6, .T. ) ;
#73 = ORIENTED_EDGE ( 'NONE', *, *, #194, .F. ) ;
#74 = VECTOR ( 'NONE', #13, 39.37007874015748143 ) ;
#75 = LENGTH_MEASURE_WITH_UNIT ( LENGTH_MEASURE( 0.02539999999999999897 ), #136 );
#76 = DIRECTION ( 'NONE',  ( -1.000000000000000000, -0.000000000000000000, -0.000000000000000000 ) ) ;
#77 = CARTESIAN_POINT ( 'NONE',  ( -29.50000000000000000, -1.500000000000000222, -1.500000000000000222 ) ) ;
#78 = EDGE_CURVE ( 'NONE', #137, #333, #91, .T. ) ;
#79 = AXIS2_PLACEMENT_3D ( 'NONE', #32, #25, #160 ) ;
#80 = DIRECTION ( 'NONE',  ( 0.000000000000000000, 0.000000000000000000, 1.000000000000000000 ) ) ;
#81 = PLANE ( 'NONE',  #45 ) ;
#82 = ORIENTED_EDGE ( 'NONE', *, *, #277, .T. ) ;
#83 = AXIS2_PLACEMENT_3D ( 'NONE', #173, #116, #222 ) ;
#84 = SURFACE_STYLE_FILL_AREA ( #36 ) ;
#85 = ORIENTED_EDGE ( 'NONE', *, *, #335, .F. ) ;
#86 = DIRECTION ( 'NONE',  ( 0.000000000000000000, 0.000000000000000000, 1.000000000000000000 ) ) ;
#87 = CARTESIAN_POINT ( 'NONE',  ( 0.000000000000000000, 0.000000000000000000, 0.000000000000000000 ) ) ;
#88 = ORIENTED_EDGE ( 'NONE', *, *, #302, .F. ) ;
#89 = ADVANCED_FACE ( 'NONE', ( #115 ), #139, .T. ) ;
#90 = PRODUCT ( 'WCP-0472 Rev1', 'WCP-0472 Rev1', '', ( #303 ) ) ;
#91 = LINE ( 'NONE', #193, #220 ) ;
#92 = CARTESIAN_POINT ( 'NONE',  ( -29.50000000000000000, -1.500000000000000222, 1.500000000000000222 ) ) ;
#93 = CARTESIAN_POINT ( 'NONE',  ( 29.50000000000000000, 0.000000000000000000, 1.375000000000000222 ) ) ;
#94 = CARTESIAN_POINT ( 'NONE',  ( -29.50000000000000000, 0.000000000000000000, -1.375000000000000222 ) ) ;
#95 = EDGE_LOOP ( 'NONE', ( #307, #198, #319, #158 ) ) ;
#96 = CARTESIAN_POINT ( 'NONE',  ( 29.50000000000000000, -1.500000000000000222, -1.500000000000000222 ) ) ;
#97 = VECTOR ( 'NONE', #50, 39.37007874015748143 ) ;
#98 = STYLED_ITEM ( 'NONE', ( #202 ), #180 ) ;
#99 = LINE ( 'NONE', #161, #256 ) ;
#100 = EDGE_LOOP ( 'NONE', ( #292, #265, #2, #73 ) ) ;
#101 = CARTESIAN_POINT ( 'NONE',  ( -29.50000000000000000, -1.375000000000000222, -1.375000000000000222 ) ) ;
#102 = DIRECTION ( 'NONE',  ( 0.000000000000000000, 0.000000000000000000, 1.000000000000000000 ) ) ;
#103 = PLANE ( 'NONE',  #79 ) ;
#104 = VERTEX_POINT ( 'NONE', #280 ) ;
#105 = ORIENTED_EDGE ( 'NONE', *, *, #109, .F. ) ;
#106 =( NAMED_UNIT ( * ) PLANE_ANGLE_UNIT ( ) SI_UNIT ( $, .RADIAN. ) );
#107 = LINE ( 'NONE', #143, #211 ) ;
#108 = LINE ( 'NONE', #299, #204 ) ;
#109 = EDGE_CURVE ( 'NONE', #336, #123, #226, .T. ) ;
#110 = EDGE_LOOP ( 'NONE', ( #261, #255, #224, #82 ) ) ;
#111 = UNCERTAINTY_MEASURE_WITH_UNIT (LENGTH_MEASURE( 1.000000000000000082E-05 ), #140, 'distance_accuracy_value', 'NONE');
#112 = CARTESIAN_POINT ( 'NONE',  ( 29.50000000000000000, 1.375000000000000222, 1.375000000000000222 ) ) ;
#113 = EDGE_CURVE ( 'NONE', #215, #330, #331, .T. ) ;
#114 = PRESENTATION_LAYER_ASSIGNMENT (  '', '', ( #41 ) ) ;
#115 = FACE_OUTER_BOUND ( 'NONE', #110, .T. ) ;
#116 = DIRECTION ( 'NONE',  ( 0.000000000000000000, 0.000000000000000000, -1.000000000000000000 ) ) ;
#117 = ADVANCED_FACE ( 'NONE', ( #227 ), #334, .F. ) ;
#118 = SURFACE_STYLE_USAGE ( .BOTH. , #46 ) ;
#119 = VERTEX_POINT ( 'NONE', #68 ) ;
#120 = VECTOR ( 'NONE', #258, 39.37007874015748143 ) ;
#121 =( NAMED_UNIT ( * ) SI_UNIT ( $, .STERADIAN. ) SOLID_ANGLE_UNIT ( ) );
#122 = MECHANICAL_DESIGN_GEOMETRIC_PRESENTATION_REPRESENTATION (  '', ( #41 ), #340 ) ;
#123 = VERTEX_POINT ( 'NONE', #337 ) ;
#124 = DIRECTION ( 'NONE',  ( 0.000000000000000000, 0.000000000000000000, 1.000000000000000000 ) ) ;
#125 = VERTEX_POINT ( 'NONE', #47 ) ;
#126 = CARTESIAN_POINT ( 'NONE',  ( 29.50000000000000000, -1.375000000000000222, 1.375000000000000222 ) ) ;
#127 = CARTESIAN_POINT ( 'NONE',  ( 29.50000000000000000, 1.500000000000000222, 1.500000000000000222 ) ) ;
#128 = AXIS2_PLACEMENT_3D ( 'NONE', #236, #51, #156 ) ;
#129 = COLOUR_RGB ( '',0.8666666666666666963, 0.9098039215686274384, 1.000000000000000000 ) ;
#130 = DIRECTION ( 'NONE',  ( 1.000000000000000000, 0.000000000000000000, 0.000000000000000000 ) ) ;
#131 = LINE ( 'NONE', #320, #278 ) ;
#132 = ORIENTED_EDGE ( 'NONE', *, *, #277, .F. ) ;
#133 = CARTESIAN_POINT ( 'NONE',  ( 29.50000000000000000, -1.500000000000000222, -1.500000000000000222 ) ) ;
#134 = ORIENTED_EDGE ( 'NONE', *, *, #234, .T. ) ;
#135 = AXIS2_PLACEMENT_3D ( 'NONE', #166, #328, #270 ) ;
#136 =( LENGTH_UNIT ( ) NAMED_UNIT ( * ) SI_UNIT ( $, .METRE. ) );
#137 = VERTEX_POINT ( 'NONE', #146 ) ;
#138 = EDGE_CURVE ( 'NONE', #30, #190, #251, .T. ) ;
#139 = PLANE ( 'NONE',  #83 ) ;
#140 =( CONVERSION_BASED_UNIT ( 'INCH', #192 ) LENGTH_UNIT ( ) NAMED_UNIT ( #201 ) );
#141 = FACE_OUTER_BOUND ( 'NONE', #95, .T. ) ;
#142 = DIRECTION ( 'NONE',  ( -0.000000000000000000, -1.000000000000000000, -0.000000000000000000 ) ) ;
#143 = CARTESIAN_POINT ( 'NONE',  ( 29.50000000000000000, -1.375000000000000222, -1.375000000000000222 ) ) ;
#144 = FACE_OUTER_BOUND ( 'NONE', #18, .T. ) ;
#145 = VECTOR ( 'NONE', #171, 39.37007874015748143 ) ;
#146 = CARTESIAN_POINT ( 'NONE',  ( 29.50000000000000000, -1.500000000000000222, -1.500000000000000222 ) ) ;
#147 = DIRECTION ( 'NONE',  ( 0.000000000000000000, 0.000000000000000000, -1.000000000000000000 ) ) ;
#148 = ORIENTED_EDGE ( 'NONE', *, *, #24, .T. ) ;
#149 = PLANE ( 'NONE',  #316 ) ;
#150 = EDGE_CURVE ( 'NONE', #119, #137, #196, .T. ) ;
#151 = FACE_BOUND ( 'NONE', #200, .T. ) ;
#152 = DIRECTION ( 'NONE',  ( 1.000000000000000000, 0.000000000000000000, -0.000000000000000000 ) ) ;
#153 = CARTESIAN_POINT ( 'NONE',  ( 29.50000000000000000, 1.500000000000000222, 1.500000000000000222 ) ) ;
#154 = ADVANCED_FACE ( 'NONE', ( #199, #151 ), #149, .T. ) ;
#155 = APPLICATION_CONTEXT ( 'automotive_design' ) ;
#156 = DIRECTION ( 'NONE',  ( 0.000000000000000000, -0.000000000000000000, 1.000000000000000000 ) ) ;
#157 = VECTOR ( 'NONE', #205, 39.37007874015748143 ) ;
#158 = ORIENTED_EDGE ( 'NONE', *, *, #188, .T. ) ;
#159 = LINE ( 'NONE', #182, #27 ) ;
#160 = DIRECTION ( 'NONE',  ( 1.000000000000000000, 0.000000000000000000, -0.000000000000000000 ) ) ;
#161 = CARTESIAN_POINT ( 'NONE',  ( 29.50000000000000000, -1.375000000000000222, 0.000000000000000000 ) ) ;
#162 = ORIENTED_EDGE ( 'NONE', *, *, #6, .F. ) ;
#163 = VECTOR ( 'NONE', #71, 39.37007874015748143 ) ;
#164 = CARTESIAN_POINT ( 'NONE',  ( -29.50000000000000000, -1.375000000000000222, 1.375000000000000222 ) ) ;
#165 = DIRECTION ( 'NONE',  ( 0.000000000000000000, -1.000000000000000000, 0.000000000000000000 ) ) ;
#166 = CARTESIAN_POINT ( 'NONE',  ( 29.50000000000000000, 1.375000000000000222, 0.000000000000000000 ) ) ;
#167 = APPLICATION_PROTOCOL_DEFINITION ( 'draft international standard', 'automotive_design', 1998, #214 ) ;
#168 = ORIENTED_EDGE ( 'NONE', *, *, #15, .F. ) ;
#169 = CARTESIAN_POINT ( 'NONE',  ( 29.50000000000000000, 1.375000000000000222, 1.375000000000000222 ) ) ;
#170 = DIRECTION ( 'NONE',  ( 0.000000000000000000, 0.000000000000000000, 1.000000000000000000 ) ) ;
#171 = DIRECTION ( 'NONE',  ( 0.000000000000000000, 1.000000000000000000, 0.000000000000000000 ) ) ;
#172 =( NAMED_UNIT ( * ) PLANE_ANGLE_UNIT ( ) SI_UNIT ( $, .RADIAN. ) );
#173 = CARTESIAN_POINT ( 'NONE',  ( 29.50000000000000000, 0.000000000000000000, 1.375000000000000222 ) ) ;
#174 = AXIS2_PLACEMENT_3D ( 'NONE', #325, #243, #327 ) ;
#175 = LINE ( 'NONE', #22, #290 ) ;
#176 = ORIENTED_EDGE ( 'NONE', *, *, #177, .T. ) ;
#177 = EDGE_CURVE ( 'NONE', #125, #248, #223, .T. ) ;
#178 = CARTESIAN_POINT ( 'NONE',  ( 29.50000000000000000, -1.375000000000000222, -1.375000000000000222 ) ) ;
#179 = CARTESIAN_POINT ( 'NONE',  ( -29.50000000000000000, 1.375000000000000222, 1.375000000000000222 ) ) ;
#180 = MANIFOLD_SOLID_BREP ( 'Extrude-Thin1', #313 ) ;
#181 = ORIENTED_EDGE ( 'NONE', *, *, #15, .T. ) ;
#182 = CARTESIAN_POINT ( 'NONE',  ( -29.50000000000000000, -1.500000000000000222, 1.500000000000000222 ) ) ;
#183 = VECTOR ( 'NONE', #16, 39.37007874015748143 ) ;
#184 = EDGE_LOOP ( 'NONE', ( #162, #132, #213, #43 ) ) ;
#185 = DIRECTION ( 'NONE',  ( 0.000000000000000000, 0.000000000000000000, -1.000000000000000000 ) ) ;
#186 = ORIENTED_EDGE ( 'NONE', *, *, #346, .F. ) ;
#187 = DIRECTION ( 'NONE',  ( 0.000000000000000000, 0.000000000000000000, -1.000000000000000000 ) ) ;
#188 = EDGE_CURVE ( 'NONE', #119, #248, #175, .T. ) ;
#189 = PLANE ( 'NONE',  #174 ) ;
#190 = VERTEX_POINT ( 'NONE', #126 ) ;
#191 = ORIENTED_EDGE ( 'NONE', *, *, #150, .T. ) ;
#192 = LENGTH_MEASURE_WITH_UNIT ( LENGTH_MEASURE( 0.02539999999999999897 ), #274 );
#193 = CARTESIAN_POINT ( 'NONE',  ( 29.50000000000000000, -1.500000000000000222, -1.500000000000000222 ) ) ;
#194 = EDGE_CURVE ( 'NONE', #104, #125, #309, .T. ) ;
#195 = DIRECTION ( 'NONE',  ( -1.000000000000000000, -0.000000000000000000, -0.000000000000000000 ) ) ;
#196 = LINE ( 'NONE', #311, #324 ) ;
#197 = AXIS2_PLACEMENT_3D ( 'NONE', #87, #86, #306 ) ;
#198 = ORIENTED_EDGE ( 'NONE', *, *, #234, .F. ) ;
#199 = FACE_OUTER_BOUND ( 'NONE', #315, .T. ) ;
#200 = EDGE_LOOP ( 'NONE', ( #207, #323, #49, #342 ) ) ;
#201 = DIMENSIONAL_EXPONENTS ( 1.000000000000000000, 0.000000000000000000, 0.000000000000000000, 0.000000000000000000, 0.000000000000000000, 0.000000000000000000, 0.000000000000000000 ) ;
#202 = PRESENTATION_STYLE_ASSIGNMENT (( #118 ) ) ;
#203 = ADVANCED_FACE ( 'NONE', ( #276 ), #293, .F. ) ;
#204 = VECTOR ( 'NONE', #8, 39.37007874015748143 ) ;
#205 = DIRECTION ( 'NONE',  ( 0.000000000000000000, -1.000000000000000000, 0.000000000000000000 ) ) ;
#206 = PLANE ( 'NONE',  #128 ) ;
#207 = ORIENTED_EDGE ( 'NONE', *, *, #3, .F. ) ;
#208 = DIRECTION ( 'NONE',  ( -1.000000000000000000, -0.000000000000000000, -0.000000000000000000 ) ) ;
#209 = VERTEX_POINT ( 'NONE', #77 ) ;
#210 = DIRECTION ( 'NONE',  ( 0.000000000000000000, 0.000000000000000000, -1.000000000000000000 ) ) ;
#211 = VECTOR ( 'NONE', #273, 39.37007874015748143 ) ;
#212 = CARTESIAN_POINT ( 'NONE',  ( -29.50000000000000000, 0.000000000000000000, 1.375000000000000222 ) ) ;
#213 = ORIENTED_EDGE ( 'NONE', *, *, #263, .T. ) ;
#214 = APPLICATION_CONTEXT ( 'automotive_design' ) ;
#215 = VERTEX_POINT ( 'NONE', #178 ) ;
#216 = VECTOR ( 'NONE', #80, 39.37007874015748143 ) ;
#217 =( NAMED_UNIT ( * ) SI_UNIT ( $, .STERADIAN. ) SOLID_ANGLE_UNIT ( ) );
#218 = CARTESIAN_POINT ( 'NONE',  ( 29.50000000000000000, 1.375000000000000222, 0.000000000000000000 ) ) ;
#219 = CARTESIAN_POINT ( 'NONE',  ( 29.50000000000000000, 1.500000000000000222, 1.500000000000000222 ) ) ;
#220 = VECTOR ( 'NONE', #11, 39.37007874015748143 ) ;
#221 = ORIENTED_EDGE ( 'NONE', *, *, #194, .T. ) ;
#222 = DIRECTION ( 'NONE',  ( -1.000000000000000000, 0.000000000000000000, -0.000000000000000000 ) ) ;
#223 = LINE ( 'NONE', #92, #163 ) ;
#224 = ORIENTED_EDGE ( 'NONE', *, *, #138, .T. ) ;
#225 = VECTOR ( 'NONE', #170, 39.37007874015748143 ) ;
#226 = LINE ( 'NONE', #94, #145 ) ;
#227 = FACE_OUTER_BOUND ( 'NONE', #250, .T. ) ;
#228 = CARTESIAN_POINT ( 'NONE',  ( -29.50000000000000000, 1.500000000000000222, 1.500000000000000222 ) ) ;
#229 = ORIENTED_EDGE ( 'NONE', *, *, #31, .F. ) ;
#230 =( GEOMETRIC_REPRESENTATION_CONTEXT ( 3 ) GLOBAL_UNCERTAINTY_ASSIGNED_CONTEXT ( ( #10 ) ) GLOBAL_UNIT_ASSIGNED_CONTEXT ( ( #285, #172, #121 ) ) REPRESENTATION_CONTEXT ( 'NONE', 'WORKASPACE' ) );
#231 = DIRECTION ( 'NONE',  ( -1.000000000000000000, 0.000000000000000000, -0.000000000000000000 ) ) ;
#232 = LINE ( 'NONE', #294, #296 ) ;
#233 = ORIENTED_EDGE ( 'NONE', *, *, #335, .T. ) ;
#234 = EDGE_CURVE ( 'NONE', #137, #209, #341, .T. ) ;
#235 = LINE ( 'NONE', #344, #216 ) ;
#236 = CARTESIAN_POINT ( 'NONE',  ( 29.50000000000000000, -1.375000000000000222, 0.000000000000000000 ) ) ;
#237 = VECTOR ( 'NONE', #300, 39.37007874015748143 ) ;
#238 = ORIENTED_EDGE ( 'NONE', *, *, #113, .T. ) ;
#239 = ADVANCED_FACE ( 'NONE', ( #29 ), #103, .T. ) ;
#240 = EDGE_LOOP ( 'NONE', ( #176, #317, #69, #312 ) ) ;
#241 = EDGE_CURVE ( 'NONE', #248, #209, #159, .T. ) ;
#242 =( NAMED_UNIT ( * ) PLANE_ANGLE_UNIT ( ) SI_UNIT ( $, .RADIAN. ) );
#243 = DIRECTION ( 'NONE',  ( -0.000000000000000000, 1.000000000000000000, 0.000000000000000000 ) ) ;
#244 = CARTESIAN_POINT ( 'NONE',  ( -29.50000000000000000, -1.375000000000000222, 0.000000000000000000 ) ) ;
#245 = FACE_OUTER_BOUND ( 'NONE', #9, .T. ) ;
#246 =( LENGTH_UNIT ( ) NAMED_UNIT ( * ) SI_UNIT ( $, .METRE. ) );
#247 = FILL_AREA_STYLE_COLOUR ( '', #19 ) ;
#248 = VERTEX_POINT ( 'NONE', #54 ) ;
#249 = DIRECTION ( 'NONE',  ( 0.000000000000000000, 0.000000000000000000, -1.000000000000000000 ) ) ;
#250 = EDGE_LOOP ( 'NONE', ( #21, #168, #289, #134 ) ) ;
#251 = LINE ( 'NONE', #93, #183 ) ;
#252 = DIMENSIONAL_EXPONENTS ( 1.000000000000000000, 0.000000000000000000, 0.000000000000000000, 0.000000000000000000, 0.000000000000000000, 0.000000000000000000, 0.000000000000000000 ) ;
#253 = ORIENTED_EDGE ( 'NONE', *, *, #78, .T. ) ;
#254 = CARTESIAN_POINT ( 'NONE',  ( 29.50000000000000000, 1.375000000000000222, -1.375000000000000222 ) ) ;
#255 = ORIENTED_EDGE ( 'NONE', *, *, #24, .F. ) ;
#256 = VECTOR ( 'NONE', #210, 39.37007874015748143 ) ;
#257 = FACE_OUTER_BOUND ( 'NONE', #100, .T. ) ;
#258 = DIRECTION ( 'NONE',  ( -1.000000000000000000, -0.000000000000000000, -0.000000000000000000 ) ) ;
#259 = EDGE_CURVE ( 'NONE', #326, #125, #260, .T. ) ;
#260 = LINE ( 'NONE', #127, #120 ) ;
#261 = ORIENTED_EDGE ( 'NONE', *, *, #308, .F. ) ;
#262 = CARTESIAN_POINT ( 'NONE',  ( 29.50000000000000000, 1.500000000000000222, -1.500000000000000222 ) ) ;
#263 = EDGE_CURVE ( 'NONE', #190, #215, #99, .T. ) ;
#264 = AXIS2_PLACEMENT_3D ( 'NONE', #96, #124, #152 ) ;
#265 = ORIENTED_EDGE ( 'NONE', *, *, #241, .F. ) ;
#266 = FILL_AREA_STYLE_COLOUR ( '', #129 ) ;
#267 = DIRECTION ( 'NONE',  ( 0.000000000000000000, -0.000000000000000000, -1.000000000000000000 ) ) ;
#268 = PRESENTATION_STYLE_ASSIGNMENT (( #298 ) ) ;
#269 = DIRECTION ( 'NONE',  ( 0.000000000000000000, 0.000000000000000000, -1.000000000000000000 ) ) ;
#270 = DIRECTION ( 'NONE',  ( 0.000000000000000000, -0.000000000000000000, -1.000000000000000000 ) ) ;
#271 = AXIS2_PLACEMENT_3D ( 'NONE', #288, #185, #231 ) ;
#272 = SURFACE_SIDE_STYLE ('',( #84 ) ) ;
#273 = DIRECTION ( 'NONE',  ( -1.000000000000000000, -0.000000000000000000, -0.000000000000000000 ) ) ;
#274 =( LENGTH_UNIT ( ) NAMED_UNIT ( * ) SI_UNIT ( $, .METRE. ) );
#275 = ORIENTED_EDGE ( 'NONE', *, *, #63, .T. ) ;
#276 = FACE_OUTER_BOUND ( 'NONE', #240, .T. ) ;
#277 = EDGE_CURVE ( 'NONE', #190, #35, #232, .T. ) ;
#278 = VECTOR ( 'NONE', #102, 39.37007874015748143 ) ;
#279 = PRODUCT_DEFINITION_FORMATION_WITH_SPECIFIED_SOURCE ( 'ANY', '', #90, .NOT_KNOWN. ) ;
#280 = CARTESIAN_POINT ( 'NONE',  ( -29.50000000000000000, 1.500000000000000222, -1.500000000000000222 ) ) ;
#281 = ORIENTED_EDGE ( 'NONE', *, *, #302, .T. ) ;
#282 = FILL_AREA_STYLE ('',( #247 ) ) ;
#283 = CARTESIAN_POINT ( 'NONE',  ( 29.50000000000000000, 0.000000000000000000, -1.375000000000000222 ) ) ;
#284 = EDGE_CURVE ( 'NONE', #209, #104, #52, .T. ) ;
#285 =( CONVERSION_BASED_UNIT ( 'INCH', #314 ) LENGTH_UNIT ( ) NAMED_UNIT ( #252 ) );
#286 = FACE_OUTER_BOUND ( 'NONE', #184, .T. ) ;
#287 = VERTEX_POINT ( 'NONE', #179 ) ;
#288 = CARTESIAN_POINT ( 'NONE',  ( 29.50000000000000000, -1.500000000000000222, 1.500000000000000222 ) ) ;
#289 = ORIENTED_EDGE ( 'NONE', *, *, #78, .F. ) ;
#290 = VECTOR ( 'NONE', #195, 39.37007874015748143 ) ;
#291 = DIRECTION ( 'NONE',  ( 0.000000000000000000, 0.000000000000000000, -1.000000000000000000 ) ) ;
#292 = ORIENTED_EDGE ( 'NONE', *, *, #284, .F. ) ;
#293 = PLANE ( 'NONE',  #271 ) ;
#294 = CARTESIAN_POINT ( 'NONE',  ( 29.50000000000000000, -1.375000000000000222, 1.375000000000000222 ) ) ;
#295 = ORIENTED_EDGE ( 'NONE', *, *, #109, .T. ) ;
#296 = VECTOR ( 'NONE', #76, 39.37007874015748143 ) ;
#297 = ORIENTED_EDGE ( 'NONE', *, *, #308, .T. ) ;
#298 = SURFACE_STYLE_USAGE ( .BOTH. , #272 ) ;
#299 = CARTESIAN_POINT ( 'NONE',  ( 29.50000000000000000, 1.500000000000000222, -1.500000000000000222 ) ) ;
#300 = DIRECTION ( 'NONE',  ( -1.000000000000000000, -0.000000000000000000, -0.000000000000000000 ) ) ;
#301 = UNCERTAINTY_MEASURE_WITH_UNIT (LENGTH_MEASURE( 1.000000000000000082E-05 ), #59, 'distance_accuracy_value', 'NONE');
#302 = EDGE_CURVE ( 'NONE', #333, #326, #131, .T. ) ;
#303 = PRODUCT_CONTEXT ( 'NONE', #155, 'mechanical' ) ;
#304 = VECTOR ( 'NONE', #64, 39.37007874015748143 ) ;
#305 = ADVANCED_FACE ( 'NONE', ( #286 ), #206, .T. ) ;
#306 = DIRECTION ( 'NONE',  ( 1.000000000000000000, 0.000000000000000000, 0.000000000000000000 ) ) ;
#307 = ORIENTED_EDGE ( 'NONE', *, *, #241, .T. ) ;
#308 = EDGE_CURVE ( 'NONE', #287, #35, #345, .T. ) ;
#309 = LINE ( 'NONE', #228, #225 ) ;
#310 = ADVANCED_FACE ( 'NONE', ( #257, #28 ), #81, .F. ) ;
#311 = CARTESIAN_POINT ( 'NONE',  ( 29.50000000000000000, -1.500000000000000222, 1.500000000000000222 ) ) ;
#312 = ORIENTED_EDGE ( 'NONE', *, *, #259, .T. ) ;
#313 = CLOSED_SHELL ( 'NONE', ( #154, #310, #117, #38, #203, #26, #239, #53, #89, #305 ) ) ;
#314 = LENGTH_MEASURE_WITH_UNIT ( LENGTH_MEASURE( 0.02539999999999999897 ), #246 );
#315 = EDGE_LOOP ( 'NONE', ( #253, #281, #275, #191 ) ) ;
#316 = AXIS2_PLACEMENT_3D ( 'NONE', #48, #65, #249 ) ;
#317 = ORIENTED_EDGE ( 'NONE', *, *, #188, .F. ) ;
#318 = DIRECTION ( 'NONE',  ( 0.000000000000000000, 1.000000000000000000, 0.000000000000000000 ) ) ;
#319 = ORIENTED_EDGE ( 'NONE', *, *, #150, .F. ) ;
#320 = CARTESIAN_POINT ( 'NONE',  ( 29.50000000000000000, 1.500000000000000222, 1.500000000000000222 ) ) ;
#321 = ORIENTED_EDGE ( 'NONE', *, *, #346, .T. ) ;
#322 = CARTESIAN_POINT ( 'NONE',  ( -29.50000000000000000, 0.000000000000000000, 0.000000000000000000 ) ) ;
#323 = ORIENTED_EDGE ( 'NONE', *, *, #113, .F. ) ;
#324 = VECTOR ( 'NONE', #147, 39.37007874015748143 ) ;
#325 = CARTESIAN_POINT ( 'NONE',  ( 29.50000000000000000, -1.500000000000000222, 1.500000000000000222 ) ) ;
#326 = VERTEX_POINT ( 'NONE', #153 ) ;
#327 = DIRECTION ( 'NONE',  ( 0.000000000000000000, -0.000000000000000000, 1.000000000000000000 ) ) ;
#328 = DIRECTION ( 'NONE',  ( 0.000000000000000000, -1.000000000000000000, 0.000000000000000000 ) ) ;
#329 = VECTOR ( 'NONE', #269, 39.37007874015748143 ) ;
#330 = VERTEX_POINT ( 'NONE', #55 ) ;
#331 = LINE ( 'NONE', #283, #74 ) ;
#332 = ADVANCED_BREP_SHAPE_REPRESENTATION ( 'WCP-0472 Rev1', ( #180, #197 ), #5 ) ;
#333 = VERTEX_POINT ( 'NONE', #262 ) ;
#334 = PLANE ( 'NONE',  #264 ) ;
#335 = EDGE_CURVE ( 'NONE', #123, #287, #235, .T. ) ;
#336 = VERTEX_POINT ( 'NONE', #101 ) ;
#337 = CARTESIAN_POINT ( 'NONE',  ( -29.50000000000000000, 1.375000000000000222, -1.375000000000000222 ) ) ;
#338 = CARTESIAN_POINT ( 'NONE',  ( -29.50000000000000000, -1.500000000000000222, -1.500000000000000222 ) ) ;
#339 = VECTOR ( 'NONE', #318, 39.37007874015748143 ) ;
#340 =( GEOMETRIC_REPRESENTATION_CONTEXT ( 3 ) GLOBAL_UNCERTAINTY_ASSIGNED_CONTEXT ( ( #111 ) ) GLOBAL_UNIT_ASSIGNED_CONTEXT ( ( #140, #242, #217 ) ) REPRESENTATION_CONTEXT ( 'NONE', 'WORKASPACE' ) );
#341 = LINE ( 'NONE', #133, #97 ) ;
#342 = ORIENTED_EDGE ( 'NONE', *, *, #138, .F. ) ;
#343 = PRODUCT_RELATED_PRODUCT_CATEGORY ( 'part', '', ( #90 ) ) ;
#344 = CARTESIAN_POINT ( 'NONE',  ( -29.50000000000000000, 1.375000000000000222, 0.000000000000000000 ) ) ;
#345 = LINE ( 'NONE', #212, #157 ) ;
#346 = EDGE_CURVE ( 'NONE', #330, #123, #34, .T. ) ;
#347 = EDGE_LOOP ( 'NONE', ( #295, #233, #297, #72 ) ) ;
ENDSEC;
END-ISO-10303-21;
