ISO-10303-21;
HEADER;
FILE_DESCRIPTION (( 'STEP AP214' ),
    '1' );
FILE_NAME ('WCP-0471 Rev1.step',
    '2024-01-15T23:03:04',
    ( '' ),
    ( '' ),
    'SwSTEP 2.0',
    'SolidWorks 2022',
    '' );
FILE_SCHEMA (( 'AUTOMOTIVE_DESIGN' ));
ENDSEC;

DATA;
#1 = ADVANCED_FACE ( 'NONE', ( #238 ), #140, .F. ) ;
#2 = EDGE_LOOP ( 'NONE', ( #261, #290, #81, #260 ) ) ;
#3 = VECTOR ( 'NONE', #152, 39.37007874015748143 ) ;
#4 = LINE ( 'NONE', #296, #74 ) ;
#5 = CARTESIAN_POINT ( 'NONE',  ( 23.50000000000000000, -1.125000000000000222, 0.000000000000000000 ) ) ;
#6 = ORIENTED_EDGE ( 'NONE', *, *, #8, .F. ) ;
#7 = DIMENSIONAL_EXPONENTS ( 1.000000000000000000, 0.000000000000000000, 0.000000000000000000, 0.000000000000000000, 0.000000000000000000, 0.000000000000000000, 0.000000000000000000 ) ;
#8 = EDGE_CURVE ( 'NONE', #111, #181, #117, .T. ) ;
#9 = VECTOR ( 'NONE', #73, 39.37007874015748143 ) ;
#10 = PRESENTATION_STYLE_ASSIGNMENT (( #163 ) ) ;
#11 = PRESENTATION_LAYER_ASSIGNMENT (  '', '', ( #308 ) ) ;
#12 = FACE_OUTER_BOUND ( 'NONE', #215, .T. ) ;
#13 = LINE ( 'NONE', #69, #176 ) ;
#14 = CARTESIAN_POINT ( 'NONE',  ( -23.50000000000000000, -1.250000000000000222, 1.250000000000000222 ) ) ;
#15 = LINE ( 'NONE', #123, #61 ) ;
#16 = EDGE_CURVE ( 'NONE', #50, #326, #115, .T. ) ;
#17 = CARTESIAN_POINT ( 'NONE',  ( 23.50000000000000000, -1.250000000000000222, -1.249999999999999778 ) ) ;
#18 = DIRECTION ( 'NONE',  ( -1.000000000000000000, -0.000000000000000000, -0.000000000000000000 ) ) ;
#19 = DIRECTION ( 'NONE',  ( -0.000000000000000000, 1.000000000000000000, 0.000000000000000000 ) ) ;
#20 = DIRECTION ( 'NONE',  ( 0.000000000000000000, -1.000000000000000000, 0.000000000000000000 ) ) ;
#21 = PLANE ( 'NONE',  #55 ) ;
#22 = ORIENTED_EDGE ( 'NONE', *, *, #161, .T. ) ;
#23 = VECTOR ( 'NONE', #86, 39.37007874015748143 ) ;
#24 = VERTEX_POINT ( 'NONE', #318 ) ;
#25 = ORIENTED_EDGE ( 'NONE', *, *, #344, .F. ) ;
#26 = VERTEX_POINT ( 'NONE', #267 ) ;
#27 = AXIS2_PLACEMENT_3D ( 'NONE', #222, #19, #172 ) ;
#28 = FILL_AREA_STYLE ('',( #289 ) ) ;
#29 = VERTEX_POINT ( 'NONE', #292 ) ;
#30 = VERTEX_POINT ( 'NONE', #89 ) ;
#31 = CARTESIAN_POINT ( 'NONE',  ( -23.50000000000000000, -1.250000000000000222, -1.249999999999999778 ) ) ;
#32 = PRODUCT_CONTEXT ( 'NONE', #128, 'mechanical' ) ;
#33 = ORIENTED_EDGE ( 'NONE', *, *, #159, .F. ) ;
#34 = DIRECTION ( 'NONE',  ( 0.000000000000000000, 0.000000000000000000, 1.000000000000000000 ) ) ;
#35 = LINE ( 'NONE', #323, #200 ) ;
#36 = DIRECTION ( 'NONE',  ( 1.000000000000000000, 0.000000000000000000, 0.000000000000000000 ) ) ;
#37 = VECTOR ( 'NONE', #38, 39.37007874015748143 ) ;
#38 = DIRECTION ( 'NONE',  ( -1.000000000000000000, -0.000000000000000000, -0.000000000000000000 ) ) ;
#39 = FACE_OUTER_BOUND ( 'NONE', #262, .T. ) ;
#40 = LINE ( 'NONE', #93, #85 ) ;
#41 = DIRECTION ( 'NONE',  ( 0.000000000000000000, 0.000000000000000000, 1.000000000000000000 ) ) ;
#42 = CARTESIAN_POINT ( 'NONE',  ( 23.50000000000000000, -1.125000000000000222, 1.125000000000000222 ) ) ;
#43 = VECTOR ( 'NONE', #99, 39.37007874015748143 ) ;
#44 = EDGE_CURVE ( 'NONE', #310, #30, #84, .T. ) ;
#45 = DIRECTION ( 'NONE',  ( 1.000000000000000000, 0.000000000000000000, -0.000000000000000000 ) ) ;
#46 = CARTESIAN_POINT ( 'NONE',  ( -23.50000000000000000, 1.124999999999999778, 1.125000000000000222 ) ) ;
#47 = PLANE ( 'NONE',  #275 ) ;
#48 = CARTESIAN_POINT ( 'NONE',  ( -23.50000000000000000, 0.000000000000000000, 1.125000000000000222 ) ) ;
#49 = ORIENTED_EDGE ( 'NONE', *, *, #327, .T. ) ;
#50 = VERTEX_POINT ( 'NONE', #243 ) ;
#51 =( CONVERSION_BASED_UNIT ( 'INCH', #317 ) LENGTH_UNIT ( ) NAMED_UNIT ( #7 ) );
#52 = ORIENTED_EDGE ( 'NONE', *, *, #110, .F. ) ;
#53 = PRODUCT_DEFINITION_CONTEXT ( 'detailed design', #80, 'design' ) ;
#54 = VERTEX_POINT ( 'NONE', #31 ) ;
#55 = AXIS2_PLACEMENT_3D ( 'NONE', #337, #126, #101 ) ;
#56 = SURFACE_STYLE_FILL_AREA ( #28 ) ;
#57 = ORIENTED_EDGE ( 'NONE', *, *, #225, .T. ) ;
#58 = MECHANICAL_DESIGN_GEOMETRIC_PRESENTATION_REPRESENTATION (  '', ( #308 ), #246 ) ;
#59 = DIRECTION ( 'NONE',  ( 0.000000000000000000, 0.000000000000000000, -1.000000000000000000 ) ) ;
#60 = SURFACE_SIDE_STYLE ('',( #242 ) ) ;
#61 = VECTOR ( 'NONE', #331, 39.37007874015748143 ) ;
#62 = DIRECTION ( 'NONE',  ( 0.000000000000000000, 0.000000000000000000, 1.000000000000000000 ) ) ;
#63 = DIRECTION ( 'NONE',  ( 0.000000000000000000, -0.000000000000000000, -1.000000000000000000 ) ) ;
#64 = ORIENTED_EDGE ( 'NONE', *, *, #259, .F. ) ;
#65 = CARTESIAN_POINT ( 'NONE',  ( -23.50000000000000000, 0.000000000000000000, -1.124999999999999778 ) ) ;
#66 = EDGE_CURVE ( 'NONE', #26, #257, #4, .T. ) ;
#67 = LINE ( 'NONE', #196, #270 ) ;
#68 =( NAMED_UNIT ( * ) PLANE_ANGLE_UNIT ( ) SI_UNIT ( $, .RADIAN. ) );
#69 = CARTESIAN_POINT ( 'NONE',  ( 23.50000000000000000, -1.250000000000000222, 1.250000000000000222 ) ) ;
#70 = CARTESIAN_POINT ( 'NONE',  ( 23.50000000000000000, -1.250000000000000222, 1.250000000000000222 ) ) ;
#71 = EDGE_CURVE ( 'NONE', #54, #310, #35, .T. ) ;
#72 =( CONVERSION_BASED_UNIT ( 'INCH', #173 ) LENGTH_UNIT ( ) NAMED_UNIT ( #188 ) );
#73 = DIRECTION ( 'NONE',  ( -1.000000000000000000, -0.000000000000000000, -0.000000000000000000 ) ) ;
#74 = VECTOR ( 'NONE', #322, 39.37007874015748143 ) ;
#75 = DIRECTION ( 'NONE',  ( -1.000000000000000000, 0.000000000000000000, -0.000000000000000000 ) ) ;
#76 = CARTESIAN_POINT ( 'NONE',  ( 23.50000000000000000, 0.000000000000000000, -1.124999999999999778 ) ) ;
#77 = ORIENTED_EDGE ( 'NONE', *, *, #184, .F. ) ;
#78 = EDGE_CURVE ( 'NONE', #181, #24, #114, .T. ) ;
#79 = EDGE_LOOP ( 'NONE', ( #282, #201, #160, #210 ) ) ;
#80 = APPLICATION_CONTEXT ( 'automotive_design' ) ;
#81 = ORIENTED_EDGE ( 'NONE', *, *, #313, .T. ) ;
#82 = ORIENTED_EDGE ( 'NONE', *, *, #225, .F. ) ;
#83 = VECTOR ( 'NONE', #250, 39.37007874015748143 ) ;
#84 = LINE ( 'NONE', #191, #118 ) ;
#85 = VECTOR ( 'NONE', #127, 39.37007874015748143 ) ;
#86 = DIRECTION ( 'NONE',  ( 0.000000000000000000, 1.000000000000000000, 0.000000000000000000 ) ) ;
#87 = MANIFOLD_SOLID_BREP ( 'Extrude-Thin1', #133 ) ;
#88 =( NAMED_UNIT ( * ) PLANE_ANGLE_UNIT ( ) SI_UNIT ( $, .RADIAN. ) );
#89 = CARTESIAN_POINT ( 'NONE',  ( -23.50000000000000000, 1.249999999999999778, 1.250000000000000222 ) ) ;
#90 = ORIENTED_EDGE ( 'NONE', *, *, #205, .T. ) ;
#91 = CARTESIAN_POINT ( 'NONE',  ( 23.50000000000000000, 1.249999999999999778, 1.250000000000000222 ) ) ;
#92 = UNCERTAINTY_MEASURE_WITH_UNIT (LENGTH_MEASURE( 1.000000000000000082E-05 ), #72, 'distance_accuracy_value', 'NONE');
#93 = CARTESIAN_POINT ( 'NONE',  ( 23.50000000000000000, 1.124999999999999778, -1.124999999999999778 ) ) ;
#94 = VECTOR ( 'NONE', #170, 39.37007874015748143 ) ;
#95 = PLANE ( 'NONE',  #190 ) ;
#96 = FACE_OUTER_BOUND ( 'NONE', #340, .T. ) ;
#97 = LINE ( 'NONE', #48, #3 ) ;
#98 = CARTESIAN_POINT ( 'NONE',  ( 23.50000000000000000, 0.000000000000000000, 0.000000000000000000 ) ) ;
#99 = DIRECTION ( 'NONE',  ( 0.000000000000000000, 0.000000000000000000, -1.000000000000000000 ) ) ;
#100 = CARTESIAN_POINT ( 'NONE',  ( 23.50000000000000000, -1.125000000000000222, -1.124999999999999778 ) ) ;
#101 = DIRECTION ( 'NONE',  ( 0.000000000000000000, 0.000000000000000000, -1.000000000000000000 ) ) ;
#102 = AXIS2_PLACEMENT_3D ( 'NONE', #169, #177, #328 ) ;
#103 = ADVANCED_FACE ( 'NONE', ( #277 ), #187, .F. ) ;
#104 = ORIENTED_EDGE ( 'NONE', *, *, #165, .F. ) ;
#105 = VERTEX_POINT ( 'NONE', #175 ) ;
#106 = ADVANCED_FACE ( 'NONE', ( #149 ), #255, .F. ) ;
#107 = AXIS2_PLACEMENT_3D ( 'NONE', #304, #122, #276 ) ;
#108 = EDGE_LOOP ( 'NONE', ( #156, #77, #204, #22 ) ) ;
#109 = AXIS2_PLACEMENT_3D ( 'NONE', #300, #145, #309 ) ;
#110 = EDGE_CURVE ( 'NONE', #105, #111, #219, .T. ) ;
#111 = VERTEX_POINT ( 'NONE', #194 ) ;
#112 = APPLICATION_PROTOCOL_DEFINITION ( 'draft international standard', 'automotive_design', 1998, #128 ) ;
#113 = DIRECTION ( 'NONE',  ( 0.000000000000000000, -1.000000000000000000, 0.000000000000000000 ) ) ;
#114 = LINE ( 'NONE', #211, #23 ) ;
#115 = LINE ( 'NONE', #213, #291 ) ;
#116 = ORIENTED_EDGE ( 'NONE', *, *, #259, .T. ) ;
#117 = LINE ( 'NONE', #5, #171 ) ;
#118 = VECTOR ( 'NONE', #34, 39.37007874015748143 ) ;
#119 = ADVANCED_FACE ( 'NONE', ( #12, #333 ), #249, .T. ) ;
#120 = CARTESIAN_POINT ( 'NONE',  ( -23.50000000000000000, -1.125000000000000222, -1.124999999999999778 ) ) ;
#121 = DIRECTION ( 'NONE',  ( -1.000000000000000000, -0.000000000000000000, -0.000000000000000000 ) ) ;
#122 = DIRECTION ( 'NONE',  ( -0.000000000000000000, 1.000000000000000000, 0.000000000000000000 ) ) ;
#123 = CARTESIAN_POINT ( 'NONE',  ( 23.50000000000000000, -1.250000000000000222, -1.249999999999999778 ) ) ;
#124 = PLANE ( 'NONE',  #27 ) ;
#125 = DIRECTION ( 'NONE',  ( 0.000000000000000000, 0.000000000000000000, -1.000000000000000000 ) ) ;
#126 = DIRECTION ( 'NONE',  ( 1.000000000000000000, 0.000000000000000000, 0.000000000000000000 ) ) ;
#127 = DIRECTION ( 'NONE',  ( -1.000000000000000000, -0.000000000000000000, -0.000000000000000000 ) ) ;
#128 = APPLICATION_CONTEXT ( 'automotive_design' ) ;
#129 = CARTESIAN_POINT ( 'NONE',  ( -23.50000000000000000, 1.249999999999999778, -1.249999999999999778 ) ) ;
#130 = EDGE_CURVE ( 'NONE', #315, #30, #272, .T. ) ;
#131 = ORIENTED_EDGE ( 'NONE', *, *, #307, .F. ) ;
#132 = DIRECTION ( 'NONE',  ( 0.000000000000000000, 0.000000000000000000, 1.000000000000000000 ) ) ;
#133 = CLOSED_SHELL ( 'NONE', ( #119, #311, #106, #1, #103, #244, #283, #324, #235, #287 ) ) ;
#134 = VECTOR ( 'NONE', #121, 39.37007874015748143 ) ;
#135 = ORIENTED_EDGE ( 'NONE', *, *, #66, .T. ) ;
#136 = ORIENTED_EDGE ( 'NONE', *, *, #44, .F. ) ;
#137 = DIRECTION ( 'NONE',  ( 0.000000000000000000, 0.000000000000000000, 1.000000000000000000 ) ) ;
#138 = ORIENTED_EDGE ( 'NONE', *, *, #8, .T. ) ;
#139 = DIRECTION ( 'NONE',  ( 0.000000000000000000, 1.000000000000000000, 0.000000000000000000 ) ) ;
#140 = PLANE ( 'NONE',  #319 ) ;
#141 = LINE ( 'NONE', #245, #94 ) ;
#142 = AXIS2_PLACEMENT_3D ( 'NONE', #226, #144, #329 ) ;
#143 = FACE_OUTER_BOUND ( 'NONE', #155, .T. ) ;
#144 = DIRECTION ( 'NONE',  ( 0.000000000000000000, 0.000000000000000000, 1.000000000000000000 ) ) ;
#145 = DIRECTION ( 'NONE',  ( 0.000000000000000000, -1.000000000000000000, 0.000000000000000000 ) ) ;
#146 = COLOUR_RGB ( '',0.8666666666666666963, 0.9098039215686274384, 1.000000000000000000 ) ;
#147 = DIRECTION ( 'NONE',  ( -0.000000000000000000, -1.000000000000000000, -0.000000000000000000 ) ) ;
#148 = LINE ( 'NONE', #178, #9 ) ;
#149 = FACE_OUTER_BOUND ( 'NONE', #342, .T. ) ;
#150 = LINE ( 'NONE', #256, #233 ) ;
#151 = CARTESIAN_POINT ( 'NONE',  ( 23.50000000000000000, 0.000000000000000000, 1.125000000000000222 ) ) ;
#152 = DIRECTION ( 'NONE',  ( 0.000000000000000000, -1.000000000000000000, 0.000000000000000000 ) ) ;
#153 = UNCERTAINTY_MEASURE_WITH_UNIT (LENGTH_MEASURE( 1.000000000000000082E-05 ), #51, 'distance_accuracy_value', 'NONE');
#154 = ORIENTED_EDGE ( 'NONE', *, *, #218, .T. ) ;
#155 = EDGE_LOOP ( 'NONE', ( #192, #33, #138, #182 ) ) ;
#156 = ORIENTED_EDGE ( 'NONE', *, *, #205, .F. ) ;
#157 = COLOUR_RGB ( '',0.8666666666666666963, 0.9098039215686274384, 1.000000000000000000 ) ;
#158 = ORIENTED_EDGE ( 'NONE', *, *, #307, .T. ) ;
#159 = EDGE_CURVE ( 'NONE', #111, #295, #252, .T. ) ;
#160 = ORIENTED_EDGE ( 'NONE', *, *, #223, .F. ) ;
#161 = EDGE_CURVE ( 'NONE', #24, #50, #40, .T. ) ;
#162 = SHAPE_DEFINITION_REPRESENTATION ( #263, #216 ) ;
#163 = SURFACE_STYLE_USAGE ( .BOTH. , #60 ) ;
#164 = EDGE_LOOP ( 'NONE', ( #297, #104, #288, #136 ) ) ;
#165 = EDGE_CURVE ( 'NONE', #257, #54, #67, .T. ) ;
#166 = DIMENSIONAL_EXPONENTS ( 1.000000000000000000, 0.000000000000000000, 0.000000000000000000, 0.000000000000000000, 0.000000000000000000, 0.000000000000000000, 0.000000000000000000 ) ;
#167 = ORIENTED_EDGE ( 'NONE', *, *, #223, .T. ) ;
#168 = APPLICATION_PROTOCOL_DEFINITION ( 'draft international standard', 'automotive_design', 1998, #80 ) ;
#169 = CARTESIAN_POINT ( 'NONE',  ( 23.50000000000000000, -1.250000000000000222, 1.250000000000000222 ) ) ;
#170 = DIRECTION ( 'NONE',  ( -1.000000000000000000, -0.000000000000000000, -0.000000000000000000 ) ) ;
#171 = VECTOR ( 'NONE', #59, 39.37007874015748143 ) ;
#172 = DIRECTION ( 'NONE',  ( 0.000000000000000000, -0.000000000000000000, 1.000000000000000000 ) ) ;
#173 = LENGTH_MEASURE_WITH_UNIT ( LENGTH_MEASURE( 0.02539999999999999897 ), #268 );
#174 = CARTESIAN_POINT ( 'NONE',  ( -23.50000000000000000, -1.250000000000000222, 1.250000000000000222 ) ) ;
#175 = CARTESIAN_POINT ( 'NONE',  ( 23.50000000000000000, 1.124999999999999778, 1.125000000000000222 ) ) ;
#176 = VECTOR ( 'NONE', #147, 39.37007874015748143 ) ;
#177 = DIRECTION ( 'NONE',  ( 0.000000000000000000, 0.000000000000000000, -1.000000000000000000 ) ) ;
#178 = CARTESIAN_POINT ( 'NONE',  ( 23.50000000000000000, -1.250000000000000222, -1.249999999999999778 ) ) ;
#179 = LINE ( 'NONE', #279, #303 ) ;
#180 = DIRECTION ( 'NONE',  ( 0.000000000000000000, 0.000000000000000000, -1.000000000000000000 ) ) ;
#181 = VERTEX_POINT ( 'NONE', #100 ) ;
#182 = ORIENTED_EDGE ( 'NONE', *, *, #184, .T. ) ;
#183 =( NAMED_UNIT ( * ) SI_UNIT ( $, .STERADIAN. ) SOLID_ANGLE_UNIT ( ) );
#184 = EDGE_CURVE ( 'NONE', #181, #186, #221, .T. ) ;
#185 = AXIS2_PLACEMENT_3D ( 'NONE', #98, #36, #125 ) ;
#186 = VERTEX_POINT ( 'NONE', #120 ) ;
#187 = PLANE ( 'NONE',  #102 ) ;
#188 = DIMENSIONAL_EXPONENTS ( 1.000000000000000000, 0.000000000000000000, 0.000000000000000000, 0.000000000000000000, 0.000000000000000000, 0.000000000000000000, 0.000000000000000000 ) ;
#189 = FILL_AREA_STYLE_COLOUR ( '', #157 ) ;
#190 = AXIS2_PLACEMENT_3D ( 'NONE', #76, #132, #45 ) ;
#191 = CARTESIAN_POINT ( 'NONE',  ( -23.50000000000000000, 1.249999999999999778, 1.250000000000000222 ) ) ;
#192 = ORIENTED_EDGE ( 'NONE', *, *, #327, .F. ) ;
#193 = CARTESIAN_POINT ( 'NONE',  ( 23.50000000000000000, 0.000000000000000000, 1.125000000000000222 ) ) ;
#194 = CARTESIAN_POINT ( 'NONE',  ( 23.50000000000000000, -1.125000000000000222, 1.125000000000000222 ) ) ;
#195 = LINE ( 'NONE', #224, #251 ) ;
#196 = CARTESIAN_POINT ( 'NONE',  ( -23.50000000000000000, -1.250000000000000222, 1.250000000000000222 ) ) ;
#197 = FACE_OUTER_BOUND ( 'NONE', #108, .T. ) ;
#198 = LINE ( 'NONE', #65, #320 ) ;
#199 = DIRECTION ( 'NONE',  ( 0.000000000000000000, 0.000000000000000000, 1.000000000000000000 ) ) ;
#200 = VECTOR ( 'NONE', #139, 39.37007874015748143 ) ;
#201 = ORIENTED_EDGE ( 'NONE', *, *, #66, .F. ) ;
#202 = ORIENTED_EDGE ( 'NONE', *, *, #294, .F. ) ;
#203 = VECTOR ( 'NONE', #41, 39.37007874015748143 ) ;
#204 = ORIENTED_EDGE ( 'NONE', *, *, #78, .T. ) ;
#205 = EDGE_CURVE ( 'NONE', #186, #50, #198, .T. ) ;
#206 = EDGE_LOOP ( 'NONE', ( #90, #234, #232, #49 ) ) ;
#207 = SURFACE_STYLE_USAGE ( .BOTH. , #209 ) ;
#208 = EDGE_LOOP ( 'NONE', ( #231, #314, #64, #154 ) ) ;
#209 = SURFACE_SIDE_STYLE ('',( #56 ) ) ;
#210 = ORIENTED_EDGE ( 'NONE', *, *, #130, .T. ) ;
#211 = CARTESIAN_POINT ( 'NONE',  ( 23.50000000000000000, 0.000000000000000000, -1.124999999999999778 ) ) ;
#212 =( NAMED_UNIT ( * ) SI_UNIT ( $, .STERADIAN. ) SOLID_ANGLE_UNIT ( ) );
#213 = CARTESIAN_POINT ( 'NONE',  ( -23.50000000000000000, 1.124999999999999778, 0.000000000000000000 ) ) ;
#214 = PRODUCT_DEFINITION ( 'UNKNOWN', '', #325, #53 ) ;
#215 = EDGE_LOOP ( 'NONE', ( #57, #116, #167, #240 ) ) ;
#216 = ADVANCED_BREP_SHAPE_REPRESENTATION ( 'WCP-0471 Rev1', ( #87, #269 ), #312 ) ;
#217 = CARTESIAN_POINT ( 'NONE',  ( 0.000000000000000000, 0.000000000000000000, 0.000000000000000000 ) ) ;
#218 = EDGE_CURVE ( 'NONE', #29, #310, #141, .T. ) ;
#219 = LINE ( 'NONE', #193, #339 ) ;
#220 = LINE ( 'NONE', #70, #43 ) ;
#221 = LINE ( 'NONE', #247, #134 ) ;
#222 = CARTESIAN_POINT ( 'NONE',  ( 23.50000000000000000, -1.250000000000000222, 1.250000000000000222 ) ) ;
#223 = EDGE_CURVE ( 'NONE', #315, #26, #13, .T. ) ;
#224 = CARTESIAN_POINT ( 'NONE',  ( 23.50000000000000000, 1.124999999999999778, 0.000000000000000000 ) ) ;
#225 = EDGE_CURVE ( 'NONE', #343, #29, #15, .T. ) ;
#226 = CARTESIAN_POINT ( 'NONE',  ( 23.50000000000000000, -1.250000000000000222, -1.249999999999999778 ) ) ;
#227 = PLANE ( 'NONE',  #107 ) ;
#228 = ORIENTED_EDGE ( 'NONE', *, *, #218, .F. ) ;
#229 = LENGTH_MEASURE_WITH_UNIT ( LENGTH_MEASURE( 0.02539999999999999897 ), #258 );
#230 = VECTOR ( 'NONE', #18, 39.37007874015748143 ) ;
#231 = ORIENTED_EDGE ( 'NONE', *, *, #44, .T. ) ;
#232 = ORIENTED_EDGE ( 'NONE', *, *, #344, .T. ) ;
#233 = VECTOR ( 'NONE', #180, 39.37007874015748143 ) ;
#234 = ORIENTED_EDGE ( 'NONE', *, *, #16, .T. ) ;
#235 = ADVANCED_FACE ( 'NONE', ( #96 ), #47, .T. ) ;
#236 = ORIENTED_EDGE ( 'NONE', *, *, #78, .F. ) ;
#237 = EDGE_CURVE ( 'NONE', #105, #326, #179, .T. ) ;
#238 = FACE_OUTER_BOUND ( 'NONE', #208, .T. ) ;
#239 = PRESENTATION_LAYER_ASSIGNMENT (  '', '', ( #336 ) ) ;
#240 = ORIENTED_EDGE ( 'NONE', *, *, #294, .T. ) ;
#241 = EDGE_LOOP ( 'NONE', ( #266, #236, #6, #52 ) ) ;
#242 = SURFACE_STYLE_FILL_AREA ( #293 ) ;
#243 = CARTESIAN_POINT ( 'NONE',  ( -23.50000000000000000, 1.124999999999999778, -1.124999999999999778 ) ) ;
#244 = ADVANCED_FACE ( 'NONE', ( #39 ), #124, .F. ) ;
#245 = CARTESIAN_POINT ( 'NONE',  ( 23.50000000000000000, 1.249999999999999778, -1.249999999999999778 ) ) ;
#246 =( GEOMETRIC_REPRESENTATION_CONTEXT ( 3 ) GLOBAL_UNCERTAINTY_ASSIGNED_CONTEXT ( ( #92 ) ) GLOBAL_UNIT_ASSIGNED_CONTEXT ( ( #72, #335, #302 ) ) REPRESENTATION_CONTEXT ( 'NONE', 'WORKASPACE' ) );
#247 = CARTESIAN_POINT ( 'NONE',  ( 23.50000000000000000, -1.125000000000000222, -1.124999999999999778 ) ) ;
#248 = CARTESIAN_POINT ( 'NONE',  ( -23.50000000000000000, -1.125000000000000222, 1.125000000000000222 ) ) ;
#249 = PLANE ( 'NONE',  #185 ) ;
#250 = DIRECTION ( 'NONE',  ( -0.000000000000000000, -1.000000000000000000, -0.000000000000000000 ) ) ;
#251 = VECTOR ( 'NONE', #199, 39.37007874015748143 ) ;
#252 = LINE ( 'NONE', #42, #230 ) ;
#253 = PRODUCT_RELATED_PRODUCT_CATEGORY ( 'part', '', ( #321 ) ) ;
#254 = DIRECTION ( 'NONE',  ( -1.000000000000000000, -0.000000000000000000, -0.000000000000000000 ) ) ;
#255 = PLANE ( 'NONE',  #142 ) ;
#256 = CARTESIAN_POINT ( 'NONE',  ( -23.50000000000000000, -1.125000000000000222, 0.000000000000000000 ) ) ;
#257 = VERTEX_POINT ( 'NONE', #14 ) ;
#258 =( LENGTH_UNIT ( ) NAMED_UNIT ( * ) SI_UNIT ( $, .METRE. ) );
#259 = EDGE_CURVE ( 'NONE', #29, #315, #273, .T. ) ;
#260 = ORIENTED_EDGE ( 'NONE', *, *, #237, .T. ) ;
#261 = ORIENTED_EDGE ( 'NONE', *, *, #16, .F. ) ;
#262 = EDGE_LOOP ( 'NONE', ( #347, #131, #202, #135 ) ) ;
#263 = PRODUCT_DEFINITION_SHAPE ( 'NONE', 'NONE',  #214 ) ;
#264 = DIRECTION ( 'NONE',  ( 1.000000000000000000, 0.000000000000000000, 0.000000000000000000 ) ) ;
#265 = ORIENTED_EDGE ( 'NONE', *, *, #159, .T. ) ;
#266 = ORIENTED_EDGE ( 'NONE', *, *, #313, .F. ) ;
#267 = CARTESIAN_POINT ( 'NONE',  ( 23.50000000000000000, -1.250000000000000222, 1.250000000000000222 ) ) ;
#268 =( LENGTH_UNIT ( ) NAMED_UNIT ( * ) SI_UNIT ( $, .METRE. ) );
#269 = AXIS2_PLACEMENT_3D ( 'NONE', #217, #62, #264 ) ;
#270 = VECTOR ( 'NONE', #299, 39.37007874015748143 ) ;
#271 = CARTESIAN_POINT ( 'NONE',  ( 23.50000000000000000, 1.249999999999999778, 1.250000000000000222 ) ) ;
#272 = LINE ( 'NONE', #274, #37 ) ;
#273 = LINE ( 'NONE', #271, #203 ) ;
#274 = CARTESIAN_POINT ( 'NONE',  ( 23.50000000000000000, 1.249999999999999778, 1.250000000000000222 ) ) ;
#275 = AXIS2_PLACEMENT_3D ( 'NONE', #151, #306, #75 ) ;
#276 = DIRECTION ( 'NONE',  ( 0.000000000000000000, -0.000000000000000000, 1.000000000000000000 ) ) ;
#277 = FACE_OUTER_BOUND ( 'NONE', #79, .T. ) ;
#278 = FACE_OUTER_BOUND ( 'NONE', #164, .T. ) ;
#279 = CARTESIAN_POINT ( 'NONE',  ( 23.50000000000000000, 1.124999999999999778, 1.125000000000000222 ) ) ;
#280 = LINE ( 'NONE', #174, #83 ) ;
#281 = ORIENTED_EDGE ( 'NONE', *, *, #110, .T. ) ;
#282 = ORIENTED_EDGE ( 'NONE', *, *, #338, .T. ) ;
#283 = ADVANCED_FACE ( 'NONE', ( #197 ), #95, .T. ) ;
#284 = PRESENTATION_STYLE_ASSIGNMENT (( #207 ) ) ;
#285 = ORIENTED_EDGE ( 'NONE', *, *, #71, .T. ) ;
#286 =( LENGTH_UNIT ( ) NAMED_UNIT ( * ) SI_UNIT ( $, .METRE. ) );
#287 = ADVANCED_FACE ( 'NONE', ( #143 ), #227, .T. ) ;
#288 = ORIENTED_EDGE ( 'NONE', *, *, #338, .F. ) ;
#289 = FILL_AREA_STYLE_COLOUR ( '', #146 ) ;
#290 = ORIENTED_EDGE ( 'NONE', *, *, #161, .F. ) ;
#291 = VECTOR ( 'NONE', #137, 39.37007874015748143 ) ;
#292 = CARTESIAN_POINT ( 'NONE',  ( 23.50000000000000000, 1.249999999999999778, -1.249999999999999778 ) ) ;
#293 = FILL_AREA_STYLE ('',( #189 ) ) ;
#294 = EDGE_CURVE ( 'NONE', #26, #343, #220, .T. ) ;
#295 = VERTEX_POINT ( 'NONE', #248 ) ;
#296 = CARTESIAN_POINT ( 'NONE',  ( 23.50000000000000000, -1.250000000000000222, 1.250000000000000222 ) ) ;
#297 = ORIENTED_EDGE ( 'NONE', *, *, #71, .F. ) ;
#298 = DIRECTION ( 'NONE',  ( 0.000000000000000000, 1.000000000000000000, 0.000000000000000000 ) ) ;
#299 = DIRECTION ( 'NONE',  ( 0.000000000000000000, 0.000000000000000000, -1.000000000000000000 ) ) ;
#300 = CARTESIAN_POINT ( 'NONE',  ( 23.50000000000000000, 1.124999999999999778, 0.000000000000000000 ) ) ;
#301 = CARTESIAN_POINT ( 'NONE',  ( 23.50000000000000000, 1.249999999999999778, 1.250000000000000222 ) ) ;
#302 =( NAMED_UNIT ( * ) SI_UNIT ( $, .STERADIAN. ) SOLID_ANGLE_UNIT ( ) );
#303 = VECTOR ( 'NONE', #254, 39.37007874015748143 ) ;
#304 = CARTESIAN_POINT ( 'NONE',  ( 23.50000000000000000, -1.125000000000000222, 0.000000000000000000 ) ) ;
#305 = UNCERTAINTY_MEASURE_WITH_UNIT (LENGTH_MEASURE( 1.000000000000000082E-05 ), #341, 'distance_accuracy_value', 'NONE');
#306 = DIRECTION ( 'NONE',  ( 0.000000000000000000, 0.000000000000000000, -1.000000000000000000 ) ) ;
#307 = EDGE_CURVE ( 'NONE', #343, #54, #148, .T. ) ;
#308 = STYLED_ITEM ( 'NONE', ( #10 ), #87 ) ;
#309 = DIRECTION ( 'NONE',  ( 0.000000000000000000, -0.000000000000000000, -1.000000000000000000 ) ) ;
#310 = VERTEX_POINT ( 'NONE', #129 ) ;
#311 = ADVANCED_FACE ( 'NONE', ( #278, #330 ), #21, .F. ) ;
#312 =( GEOMETRIC_REPRESENTATION_CONTEXT ( 3 ) GLOBAL_UNCERTAINTY_ASSIGNED_CONTEXT ( ( #305 ) ) GLOBAL_UNIT_ASSIGNED_CONTEXT ( ( #341, #68, #183 ) ) REPRESENTATION_CONTEXT ( 'NONE', 'WORKASPACE' ) );
#313 = EDGE_CURVE ( 'NONE', #24, #105, #195, .T. ) ;
#314 = ORIENTED_EDGE ( 'NONE', *, *, #130, .F. ) ;
#315 = VERTEX_POINT ( 'NONE', #301 ) ;
#316 =( GEOMETRIC_REPRESENTATION_CONTEXT ( 3 ) GLOBAL_UNCERTAINTY_ASSIGNED_CONTEXT ( ( #153 ) ) GLOBAL_UNIT_ASSIGNED_CONTEXT ( ( #51, #88, #212 ) ) REPRESENTATION_CONTEXT ( 'NONE', 'WORKASPACE' ) );
#317 = LENGTH_MEASURE_WITH_UNIT ( LENGTH_MEASURE( 0.02539999999999999897 ), #286 );
#318 = CARTESIAN_POINT ( 'NONE',  ( 23.50000000000000000, 1.124999999999999778, -1.124999999999999778 ) ) ;
#319 = AXIS2_PLACEMENT_3D ( 'NONE', #91, #113, #63 ) ;
#320 = VECTOR ( 'NONE', #298, 39.37007874015748143 ) ;
#321 = PRODUCT ( 'WCP-0471 Rev1', 'WCP-0471 Rev1', '', ( #32 ) ) ;
#322 = DIRECTION ( 'NONE',  ( -1.000000000000000000, -0.000000000000000000, -0.000000000000000000 ) ) ;
#323 = CARTESIAN_POINT ( 'NONE',  ( -23.50000000000000000, -1.250000000000000222, -1.249999999999999778 ) ) ;
#324 = ADVANCED_FACE ( 'NONE', ( #334 ), #332, .T. ) ;
#325 = PRODUCT_DEFINITION_FORMATION_WITH_SPECIFIED_SOURCE ( 'ANY', '', #321, .NOT_KNOWN. ) ;
#326 = VERTEX_POINT ( 'NONE', #46 ) ;
#327 = EDGE_CURVE ( 'NONE', #295, #186, #150, .T. ) ;
#328 = DIRECTION ( 'NONE',  ( -1.000000000000000000, 0.000000000000000000, -0.000000000000000000 ) ) ;
#329 = DIRECTION ( 'NONE',  ( 1.000000000000000000, 0.000000000000000000, -0.000000000000000000 ) ) ;
#330 = FACE_BOUND ( 'NONE', #206, .T. ) ;
#331 = DIRECTION ( 'NONE',  ( 0.000000000000000000, 1.000000000000000000, 0.000000000000000000 ) ) ;
#332 = PLANE ( 'NONE',  #109 ) ;
#333 = FACE_BOUND ( 'NONE', #241, .T. ) ;
#334 = FACE_OUTER_BOUND ( 'NONE', #2, .T. ) ;
#335 =( NAMED_UNIT ( * ) PLANE_ANGLE_UNIT ( ) SI_UNIT ( $, .RADIAN. ) );
#336 = STYLED_ITEM ( 'NONE', ( #284 ), #216 ) ;
#337 = CARTESIAN_POINT ( 'NONE',  ( -23.50000000000000000, 0.000000000000000000, 0.000000000000000000 ) ) ;
#338 = EDGE_CURVE ( 'NONE', #30, #257, #280, .T. ) ;
#339 = VECTOR ( 'NONE', #20, 39.37007874015748143 ) ;
#340 = EDGE_LOOP ( 'NONE', ( #25, #346, #281, #265 ) ) ;
#341 =( CONVERSION_BASED_UNIT ( 'INCH', #229 ) LENGTH_UNIT ( ) NAMED_UNIT ( #166 ) );
#342 = EDGE_LOOP ( 'NONE', ( #285, #228, #82, #158 ) ) ;
#343 = VERTEX_POINT ( 'NONE', #17 ) ;
#344 = EDGE_CURVE ( 'NONE', #326, #295, #97, .T. ) ;
#345 = MECHANICAL_DESIGN_GEOMETRIC_PRESENTATION_REPRESENTATION (  '', ( #336 ), #316 ) ;
#346 = ORIENTED_EDGE ( 'NONE', *, *, #237, .F. ) ;
#347 = ORIENTED_EDGE ( 'NONE', *, *, #165, .T. ) ;
ENDSEC;
END-ISO-10303-21;
