ISO-10303-21;
HEADER;
FILE_DESCRIPTION (( 'STEP AP214' ),
    '1' );
FILE_NAME ('WCP-0444.step',
    '2022-01-07T22:43:02',
    ( '' ),
    ( '' ),
    'SwSTEP 2.0',
    'SolidWorks 2020',
    '' );
FILE_SCHEMA (( 'AUTOMOTIVE_DESIGN' ));
ENDSEC;

DATA;
#1 = DIRECTION ( 'NONE',  ( -0.000000000000000000, -0.000000000000000000, 1.000000000000000000 ) ) ;
#2 = APPLICATION_CONTEXT ( 'automotive_design' ) ;
#3 = DIMENSIONAL_EXPONENTS ( 1.000000000000000000, 0.000000000000000000, 0.000000000000000000, 0.000000000000000000, 0.000000000000000000, 0.000000000000000000, 0.000000000000000000 ) ;
#4 = SURFACE_STYLE_USAGE ( .BOTH. , #173 ) ;
#5 = DIMENSIONAL_EXPONENTS ( 1.000000000000000000, 0.000000000000000000, 0.000000000000000000, 0.000000000000000000, 0.000000000000000000, 0.000000000000000000, 0.000000000000000000 ) ;
#6 = CIRCLE ( 'NONE', #205, 1.000000000000000222 ) ;
#7 = AXIS2_PLACEMENT_3D ( 'NONE', #116, #268, #390 ) ;
#8 = CARTESIAN_POINT ( 'NONE',  ( 0.000000000000000000, 0.000000000000000000, 0.000000000000000000 ) ) ;
#9 = ORIENTED_EDGE ( 'NONE', *, *, #368, .F. ) ;
#10 = CARTESIAN_POINT ( 'NONE',  ( -0.5629999999999999449, 6.894761479199596848E-17, -0.1181102362204723977 ) ) ;
#11 = ADVANCED_FACE ( 'NONE', ( #79 ), #295, .T. ) ;
#12 = EDGE_LOOP ( 'NONE', ( #331, #188, #287, #354 ) ) ;
#13 = DIRECTION ( 'NONE',  ( -0.000000000000000000, -0.000000000000000000, 1.000000000000000000 ) ) ;
#14 = ORIENTED_EDGE ( 'NONE', *, *, #172, .T. ) ;
#15 = CARTESIAN_POINT ( 'NONE',  ( 0.5629999999999999449, 0.000000000000000000, -0.1181102362204723977 ) ) ;
#16 = CLOSED_SHELL ( 'NONE', ( #197, #261, #11, #201, #275, #204, #252, #104, #109, #233, #332, #159, #141 ) ) ;
#17 = AXIS2_PLACEMENT_3D ( 'NONE', #128, #344, #316 ) ;
#18 = CIRCLE ( 'NONE', #133, 1.000000000000000222 ) ;
#19 = EDGE_LOOP ( 'NONE', ( #213, #352, #123, #216 ) ) ;
#20 = CYLINDRICAL_SURFACE ( 'NONE', #102, 0.5629999999999999449 ) ;
#21 = ORIENTED_EDGE ( 'NONE', *, *, #397, .F. ) ;
#22 = DIRECTION ( 'NONE',  ( -0.000000000000000000, -0.000000000000000000, 1.000000000000000000 ) ) ;
#23 = DIRECTION ( 'NONE',  ( -0.000000000000000000, -0.000000000000000000, 1.000000000000000000 ) ) ;
#24 = VERTEX_POINT ( 'NONE', #255 ) ;
#25 = AXIS2_PLACEMENT_3D ( 'NONE', #356, #22, #194 ) ;
#26 = VECTOR ( 'NONE', #358, 39.37007874015748143 ) ;
#27 = DIRECTION ( 'NONE',  ( -0.000000000000000000, -0.000000000000000000, 1.000000000000000000 ) ) ;
#28 = ORIENTED_EDGE ( 'NONE', *, *, #337, .F. ) ;
#29 = ORIENTED_EDGE ( 'NONE', *, *, #37, .T. ) ;
#30 = CIRCLE ( 'NONE', #53, 0.6562500000000000000 ) ;
#31 = EDGE_CURVE ( 'NONE', #329, #292, #107, .T. ) ;
#32 =( CONVERSION_BASED_UNIT ( 'INCH', #59 ) LENGTH_UNIT ( ) NAMED_UNIT ( #3 ) );
#33 = DIRECTION ( 'NONE',  ( -0.000000000000000000, -0.000000000000000000, 1.000000000000000000 ) ) ;
#34 = CARTESIAN_POINT ( 'NONE',  ( 0.000000000000000000, 0.000000000000000000, 0.000000000000000000 ) ) ;
#35 = CARTESIAN_POINT ( 'NONE',  ( 0.9803149606299210728, 0.000000000000000000, -0.1181102362204724116 ) ) ;
#36 = AXIS2_PLACEMENT_3D ( 'NONE', #232, #110, #254 ) ;
#37 = EDGE_CURVE ( 'NONE', #120, #43, #181, .T. ) ;
#38 = CONICAL_SURFACE ( 'NONE', #248, 1.000000000000000222, 0.7853981633974482790 ) ;
#39 = CARTESIAN_POINT ( 'NONE',  ( 1.000000000000000222, 0.000000000000000000, -0.09842519685039338717 ) ) ;
#40 = ORIENTED_EDGE ( 'NONE', *, *, #337, .T. ) ;
#41 = DIRECTION ( 'NONE',  ( 1.000000000000000000, 0.000000000000000000, 0.000000000000000000 ) ) ;
#42 = FILL_AREA_STYLE_COLOUR ( '', #285 ) ;
#43 = VERTEX_POINT ( 'NONE', #200 ) ;
#44 = SURFACE_STYLE_USAGE ( .BOTH. , #119 ) ;
#45 = CARTESIAN_POINT ( 'NONE',  ( -1.000000000000000222, 1.224646799147353454E-16, -0.01968503937007916663 ) ) ;
#46 = CIRCLE ( 'NONE', #214, 0.5629999999999999449 ) ;
#47 = COLOUR_RGB ( '',0.8666666666666666963, 0.9098039215686274384, 1.000000000000000000 ) ;
#48 = VERTEX_POINT ( 'NONE', #136 ) ;
#49 = LENGTH_MEASURE_WITH_UNIT ( LENGTH_MEASURE( 0.02539999999999999897 ), #289 );
#50 = ORIENTED_EDGE ( 'NONE', *, *, #96, .T. ) ;
#51 = CARTESIAN_POINT ( 'NONE',  ( 0.5629999999999999449, 0.000000000000000000, 0.000000000000000000 ) ) ;
#52 =( NAMED_UNIT ( * ) SI_UNIT ( $, .STERADIAN. ) SOLID_ANGLE_UNIT ( ) );
#53 = AXIS2_PLACEMENT_3D ( 'NONE', #272, #238, #60 ) ;
#54 = ORIENTED_EDGE ( 'NONE', *, *, #306, .F. ) ;
#55 = AXIS2_PLACEMENT_3D ( 'NONE', #82, #23, #366 ) ;
#56 = ORIENTED_EDGE ( 'NONE', *, *, #64, .T. ) ;
#57 = DIRECTION ( 'NONE',  ( -0.000000000000000000, -0.000000000000000000, 1.000000000000000000 ) ) ;
#58 = EDGE_CURVE ( 'NONE', #132, #258, #259, .T. ) ;
#59 = LENGTH_MEASURE_WITH_UNIT ( LENGTH_MEASURE( 0.02539999999999999897 ), #131 );
#60 = DIRECTION ( 'NONE',  ( 1.000000000000000000, 0.000000000000000000, 0.000000000000000000 ) ) ;
#61 = EDGE_CURVE ( 'NONE', #292, #329, #340, .T. ) ;
#62 = VECTOR ( 'NONE', #241, 39.37007874015748854 ) ;
#63 = FILL_AREA_STYLE ('',( #42 ) ) ;
#64 = EDGE_CURVE ( 'NONE', #132, #48, #196, .T. ) ;
#65 = EDGE_LOOP ( 'NONE', ( #280, #29 ) ) ;
#66 = DIRECTION ( 'NONE',  ( 1.000000000000000000, 0.000000000000000000, 0.000000000000000000 ) ) ;
#67 = FACE_OUTER_BOUND ( 'NONE', #364, .T. ) ;
#68 = CARTESIAN_POINT ( 'NONE',  ( 0.000000000000000000, 0.000000000000000000, -0.01968503937007916663 ) ) ;
#69 = ORIENTED_EDGE ( 'NONE', *, *, #397, .T. ) ;
#70 = CARTESIAN_POINT ( 'NONE',  ( 0.000000000000000000, 0.000000000000000000, 0.000000000000000000 ) ) ;
#71 = DIRECTION ( 'NONE',  ( 0.000000000000000000, 0.000000000000000000, -1.000000000000000000 ) ) ;
#72 = FACE_BOUND ( 'NONE', #138, .T. ) ;
#73 = ORIENTED_EDGE ( 'NONE', *, *, #368, .T. ) ;
#74 = CARTESIAN_POINT ( 'NONE',  ( -0.6562500000000000000, 8.036744619404505191E-17, 0.000000000000000000 ) ) ;
#75 = CARTESIAN_POINT ( 'NONE',  ( 0.5629999999999999449, 0.000000000000000000, -0.06250000000000000000 ) ) ;
#76 = AXIS2_PLACEMENT_3D ( 'NONE', #70, #318, #156 ) ;
#77 = EDGE_LOOP ( 'NONE', ( #154, #198 ) ) ;
#78 = CIRCLE ( 'NONE', #55, 0.5629999999999999449 ) ;
#79 = FACE_OUTER_BOUND ( 'NONE', #12, .T. ) ;
#80 = UNCERTAINTY_MEASURE_WITH_UNIT (LENGTH_MEASURE( 1.000000000000000082E-05 ), #84, 'distance_accuracy_value', 'NONE');
#81 = VERTEX_POINT ( 'NONE', #74 ) ;
#82 = CARTESIAN_POINT ( 'NONE',  ( 0.000000000000000000, 0.000000000000000000, -0.06250000000000000000 ) ) ;
#83 = CIRCLE ( 'NONE', #399, 0.6562500000000000000 ) ;
#84 =( CONVERSION_BASED_UNIT ( 'INCH', #49 ) LENGTH_UNIT ( ) NAMED_UNIT ( #139 ) );
#85 = LINE ( 'NONE', #281, #86 ) ;
#86 = VECTOR ( 'NONE', #235, 39.37007874015748854 ) ;
#87 = FACE_OUTER_BOUND ( 'NONE', #383, .T. ) ;
#88 = EDGE_CURVE ( 'NONE', #292, #250, #324, .T. ) ;
#89 = ORIENTED_EDGE ( 'NONE', *, *, #61, .T. ) ;
#90 = CARTESIAN_POINT ( 'NONE',  ( -0.9803149606299209617, 0.000000000000000000, 0.000000000000000000 ) ) ;
#91 = DIRECTION ( 'NONE',  ( 1.000000000000000000, 0.000000000000000000, 0.000000000000000000 ) ) ;
#92 = AXIS2_PLACEMENT_3D ( 'NONE', #265, #338, #66 ) ;
#93 = DIRECTION ( 'NONE',  ( 1.000000000000000000, 0.000000000000000000, 0.000000000000000000 ) ) ;
#94 = EDGE_LOOP ( 'NONE', ( #165, #100, #209, #242 ) ) ;
#95 = PRESENTATION_STYLE_ASSIGNMENT (( #44 ) ) ;
#96 = EDGE_CURVE ( 'NONE', #48, #132, #125, .T. ) ;
#97 = ORIENTED_EDGE ( 'NONE', *, *, #168, .F. ) ;
#98 = FACE_OUTER_BOUND ( 'NONE', #394, .T. ) ;
#99 = DIRECTION ( 'NONE',  ( 1.000000000000000000, 0.000000000000000000, 0.000000000000000000 ) ) ;
#100 = ORIENTED_EDGE ( 'NONE', *, *, #64, .F. ) ;
#101 = DIRECTION ( 'NONE',  ( -1.000000000000000000, 0.000000000000000000, 0.000000000000000000 ) ) ;
#102 = AXIS2_PLACEMENT_3D ( 'NONE', #215, #251, #384 ) ;
#103 = ORIENTED_EDGE ( 'NONE', *, *, #168, .T. ) ;
#104 = ADVANCED_FACE ( 'NONE', ( #161, #134 ), #359, .T. ) ;
#105 = VERTEX_POINT ( 'NONE', #339 ) ;
#106 = ORIENTED_EDGE ( 'NONE', *, *, #210, .F. ) ;
#107 = CIRCLE ( 'NONE', #36, 0.5629999999999999449 ) ;
#108 = DIRECTION ( 'NONE',  ( 1.000000000000000000, 0.000000000000000000, 0.000000000000000000 ) ) ;
#109 = ADVANCED_FACE ( 'NONE', ( #333 ), #237, .F. ) ;
#110 = DIRECTION ( 'NONE',  ( -0.000000000000000000, -0.000000000000000000, 1.000000000000000000 ) ) ;
#111 = CARTESIAN_POINT ( 'NONE',  ( 0.5629999999999999449, 0.000000000000000000, -0.06250000000000000000 ) ) ;
#112 = DIRECTION ( 'NONE',  ( -1.000000000000000000, 0.000000000000000000, 0.000000000000000000 ) ) ;
#113 =( NAMED_UNIT ( * ) SI_UNIT ( $, .STERADIAN. ) SOLID_ANGLE_UNIT ( ) );
#114 = CYLINDRICAL_SURFACE ( 'NONE', #17, 0.5629999999999999449 ) ;
#115 = VECTOR ( 'NONE', #160, 39.37007874015748854 ) ;
#116 = CARTESIAN_POINT ( 'NONE',  ( 0.000000000000000000, 0.000000000000000000, -0.1181102362204724116 ) ) ;
#117 = EDGE_CURVE ( 'NONE', #253, #24, #6, .T. ) ;
#118 = MECHANICAL_DESIGN_GEOMETRIC_PRESENTATION_REPRESENTATION (  '', ( #240 ), #294 ) ;
#119 = SURFACE_SIDE_STYLE ('',( #177 ) ) ;
#120 = VERTEX_POINT ( 'NONE', #377 ) ;
#121 = ORIENTED_EDGE ( 'NONE', *, *, #363, .F. ) ;
#122 = DIRECTION ( 'NONE',  ( 1.000000000000000000, 0.000000000000000000, 0.000000000000000000 ) ) ;
#123 = ORIENTED_EDGE ( 'NONE', *, *, #374, .T. ) ;
#124 = EDGE_CURVE ( 'NONE', #258, #219, #293, .T. ) ;
#125 = CIRCLE ( 'NONE', #236, 0.9803149606299209617 ) ;
#126 = MECHANICAL_DESIGN_GEOMETRIC_PRESENTATION_REPRESENTATION (  '', ( #145 ), #262 ) ;
#127 = EDGE_LOOP ( 'NONE', ( #365, #349, #379, #342 ) ) ;
#128 = CARTESIAN_POINT ( 'NONE',  ( 0.000000000000000000, 0.000000000000000000, 0.000000000000000000 ) ) ;
#129 = VERTEX_POINT ( 'NONE', #35 ) ;
#130 = FACE_OUTER_BOUND ( 'NONE', #127, .T. ) ;
#131 =( LENGTH_UNIT ( ) NAMED_UNIT ( * ) SI_UNIT ( $, .METRE. ) );
#132 = VERTEX_POINT ( 'NONE', #90 ) ;
#133 = AXIS2_PLACEMENT_3D ( 'NONE', #187, #381, #155 ) ;
#134 = FACE_BOUND ( 'NONE', #77, .T. ) ;
#135 = PRODUCT_CONTEXT ( 'NONE', #178, 'mechanical' ) ;
#136 = CARTESIAN_POINT ( 'NONE',  ( 0.9803149606299209617, 1.212593188919524844E-16, 0.000000000000000000 ) ) ;
#137 = CARTESIAN_POINT ( 'NONE',  ( 0.000000000000000000, 0.000000000000000000, -0.06250000000000000000 ) ) ;
#138 = EDGE_LOOP ( 'NONE', ( #89, #322 ) ) ;
#139 = DIMENSIONAL_EXPONENTS ( 1.000000000000000000, 0.000000000000000000, 0.000000000000000000, 0.000000000000000000, 0.000000000000000000, 0.000000000000000000, 0.000000000000000000 ) ;
#140 = CARTESIAN_POINT ( 'NONE',  ( 0.9803149606299209617, 1.200539578691696234E-16, 0.000000000000000000 ) ) ;
#141 = ADVANCED_FACE ( 'NONE', ( #182 ), #369, .T. ) ;
#142 = DIRECTION ( 'NONE',  ( 1.000000000000000000, 0.000000000000000000, 0.000000000000000000 ) ) ;
#143 = DIRECTION ( 'NONE',  ( -1.000000000000000000, 0.000000000000000000, 0.000000000000000000 ) ) ;
#144 = CONICAL_SURFACE ( 'NONE', #276, 1.000000000000000222, 0.7853981633974482790 ) ;
#145 = STYLED_ITEM ( 'NONE', ( #226 ), #288 ) ;
#146 = LINE ( 'NONE', #140, #327 ) ;
#147 = DIRECTION ( 'NONE',  ( 1.000000000000000000, 0.000000000000000000, 0.000000000000000000 ) ) ;
#148 = DIRECTION ( 'NONE',  ( -1.000000000000000000, 0.000000000000000000, -0.000000000000000000 ) ) ;
#149 = LINE ( 'NONE', #179, #269 ) ;
#150 = CARTESIAN_POINT ( 'NONE',  ( 0.6562500000000000000, 0.000000000000000000, 0.000000000000000000 ) ) ;
#151 = ORIENTED_EDGE ( 'NONE', *, *, #388, .F. ) ;
#152 = DIRECTION ( 'NONE',  ( 0.000000000000000000, 0.000000000000000000, -1.000000000000000000 ) ) ;
#153 = DIRECTION ( 'NONE',  ( 0.000000000000000000, 0.000000000000000000, -1.000000000000000000 ) ) ;
#154 = ORIENTED_EDGE ( 'NONE', *, *, #176, .F. ) ;
#155 = DIRECTION ( 'NONE',  ( -1.000000000000000000, 0.000000000000000000, 0.000000000000000000 ) ) ;
#156 = DIRECTION ( 'NONE',  ( 1.000000000000000000, 0.000000000000000000, 0.000000000000000000 ) ) ;
#157 = VECTOR ( 'NONE', #57, 39.37007874015748143 ) ;
#158 = EDGE_LOOP ( 'NONE', ( #311, #296, #315, #9 ) ) ;
#159 = ADVANCED_FACE ( 'NONE', ( #343 ), #38, .T. ) ;
#160 = DIRECTION ( 'NONE',  ( -0.7071067811865474617, 0.000000000000000000, -0.7071067811865474617 ) ) ;
#161 = FACE_OUTER_BOUND ( 'NONE', #65, .T. ) ;
#162 = FILL_AREA_STYLE ('',( #257 ) ) ;
#163 = AXIS2_PLACEMENT_3D ( 'NONE', #8, #152, #112 ) ;
#164 = VECTOR ( 'NONE', #367, 39.37007874015748143 ) ;
#165 = ORIENTED_EDGE ( 'NONE', *, *, #228, .F. ) ;
#166 = CARTESIAN_POINT ( 'NONE',  ( 1.000000000000000000, 0.000000000000000000, -0.1181102362204724116 ) ) ;
#167 = ORIENTED_EDGE ( 'NONE', *, *, #31, .F. ) ;
#168 = EDGE_CURVE ( 'NONE', #290, #24, #85, .T. ) ;
#169 = DIRECTION ( 'NONE',  ( -0.000000000000000000, -0.000000000000000000, 1.000000000000000000 ) ) ;
#170 = AXIS2_PLACEMENT_3D ( 'NONE', #166, #373, #148 ) ;
#171 = DIRECTION ( 'NONE',  ( 1.000000000000000000, 0.000000000000000000, 0.000000000000000000 ) ) ;
#172 = EDGE_CURVE ( 'NONE', #319, #81, #83, .T. ) ;
#173 = SURFACE_SIDE_STYLE ('',( #334 ) ) ;
#174 = CARTESIAN_POINT ( 'NONE',  ( 1.000000000000000222, 0.000000000000000000, -0.01968503937007916663 ) ) ;
#175 = AXIS2_PLACEMENT_3D ( 'NONE', #243, #1, #171 ) ;
#176 = EDGE_CURVE ( 'NONE', #250, #105, #46, .T. ) ;
#177 = SURFACE_STYLE_FILL_AREA ( #63 ) ;
#178 = APPLICATION_CONTEXT ( 'automotive_design' ) ;
#179 = CARTESIAN_POINT ( 'NONE',  ( -0.5629999999999999449, 6.894761479199596848E-17, 0.000000000000000000 ) ) ;
#180 = ORIENTED_EDGE ( 'NONE', *, *, #88, .T. ) ;
#181 = CIRCLE ( 'NONE', #382, 0.6562500000000000000 ) ;
#182 = FACE_OUTER_BOUND ( 'NONE', #94, .T. ) ;
#183 = CARTESIAN_POINT ( 'NONE',  ( 0.000000000000000000, 0.000000000000000000, 0.000000000000000000 ) ) ;
#184 = PRODUCT_DEFINITION ( 'UNKNOWN', '', #362, #314 ) ;
#185 = EDGE_LOOP ( 'NONE', ( #97, #28, #277, #121 ) ) ;
#186 = LINE ( 'NONE', #386, #260 ) ;
#187 = CARTESIAN_POINT ( 'NONE',  ( 0.000000000000000000, 0.000000000000000000, -0.09842519685039338717 ) ) ;
#188 = ORIENTED_EDGE ( 'NONE', *, *, #189, .T. ) ;
#189 = EDGE_CURVE ( 'NONE', #24, #258, #186, .T. ) ;
#190 = AXIS2_PLACEMENT_3D ( 'NONE', #68, #71, #99 ) ;
#191 =( NAMED_UNIT ( * ) PLANE_ANGLE_UNIT ( ) SI_UNIT ( $, .RADIAN. ) );
#192 = ORIENTED_EDGE ( 'NONE', *, *, #176, .T. ) ;
#193 =( NAMED_UNIT ( * ) PLANE_ANGLE_UNIT ( ) SI_UNIT ( $, .RADIAN. ) );
#194 = DIRECTION ( 'NONE',  ( 1.000000000000000000, 0.000000000000000000, 0.000000000000000000 ) ) ;
#195 = DIRECTION ( 'NONE',  ( 0.000000000000000000, -0.000000000000000000, 1.000000000000000000 ) ) ;
#196 = CIRCLE ( 'NONE', #25, 0.9803149606299209617 ) ;
#197 = ADVANCED_FACE ( 'NONE', ( #130 ), #270, .T. ) ;
#198 = ORIENTED_EDGE ( 'NONE', *, *, #380, .F. ) ;
#199 = CARTESIAN_POINT ( 'NONE',  ( 0.000000000000000000, 0.000000000000000000, -0.1181102362204723977 ) ) ;
#200 = CARTESIAN_POINT ( 'NONE',  ( 0.6562500000000000000, 0.000000000000000000, -0.06250000000000000000 ) ) ;
#201 = ADVANCED_FACE ( 'NONE', ( #357 ), #325, .F. ) ;
#202 = LINE ( 'NONE', #353, #206 ) ;
#203 = CARTESIAN_POINT ( 'NONE',  ( 0.000000000000000000, 0.000000000000000000, -0.09842519685039338717 ) ) ;
#204 = ADVANCED_FACE ( 'NONE', ( #98, #72 ), #299, .T. ) ;
#205 = AXIS2_PLACEMENT_3D ( 'NONE', #203, #302, #143 ) ;
#206 = VECTOR ( 'NONE', #300, 39.37007874015748143 ) ;
#207 = PLANE ( 'NONE',  #335 ) ;
#208 = DIRECTION ( 'NONE',  ( -0.000000000000000000, -0.000000000000000000, 1.000000000000000000 ) ) ;
#209 = ORIENTED_EDGE ( 'NONE', *, *, #58, .T. ) ;
#210 = EDGE_CURVE ( 'NONE', #81, #319, #30, .T. ) ;
#211 = CARTESIAN_POINT ( 'NONE',  ( 0.000000000000000000, 0.000000000000000000, -0.06250000000000000000 ) ) ;
#212 = CYLINDRICAL_SURFACE ( 'NONE', #392, 1.000000000000000222 ) ;
#213 = ORIENTED_EDGE ( 'NONE', *, *, #189, .F. ) ;
#214 = AXIS2_PLACEMENT_3D ( 'NONE', #211, #225, #91 ) ;
#215 = CARTESIAN_POINT ( 'NONE',  ( 0.000000000000000000, 0.000000000000000000, 0.000000000000000000 ) ) ;
#216 = ORIENTED_EDGE ( 'NONE', *, *, #291, .T. ) ;
#217 = DIRECTION ( 'NONE',  ( 0.000000000000000000, 0.000000000000000000, -1.000000000000000000 ) ) ;
#218 = LENGTH_MEASURE_WITH_UNIT ( LENGTH_MEASURE( 0.02539999999999999897 ), #220 );
#219 = VERTEX_POINT ( 'NONE', #174 ) ;
#220 =( LENGTH_UNIT ( ) NAMED_UNIT ( * ) SI_UNIT ( $, .METRE. ) );
#221 = EDGE_LOOP ( 'NONE', ( #247, #106 ) ) ;
#222 = PRESENTATION_LAYER_ASSIGNMENT (  '', '', ( #145 ) ) ;
#223 = APPLICATION_PROTOCOL_DEFINITION ( 'draft international standard', 'automotive_design', 1998, #178 ) ;
#224 = DIRECTION ( 'NONE',  ( -0.000000000000000000, -0.000000000000000000, 1.000000000000000000 ) ) ;
#225 = DIRECTION ( 'NONE',  ( -0.000000000000000000, -0.000000000000000000, 1.000000000000000000 ) ) ;
#226 = PRESENTATION_STYLE_ASSIGNMENT (( #4 ) ) ;
#227 = CARTESIAN_POINT ( 'NONE',  ( 0.000000000000000000, 0.000000000000000000, 0.000000000000000000 ) ) ;
#228 = EDGE_CURVE ( 'NONE', #48, #219, #146, .T. ) ;
#229 = CARTESIAN_POINT ( 'NONE',  ( 0.000000000000000000, 0.000000000000000000, 0.000000000000000000 ) ) ;
#230 = CIRCLE ( 'NONE', #310, 0.6562500000000000000 ) ;
#231 = CARTESIAN_POINT ( 'NONE',  ( -0.9803149606299209617, 0.000000000000000000, 0.000000000000000000 ) ) ;
#232 = CARTESIAN_POINT ( 'NONE',  ( 0.000000000000000000, 0.000000000000000000, -0.1181102362204723977 ) ) ;
#233 = ADVANCED_FACE ( 'NONE', ( #87, #239 ), #207, .T. ) ;
#234 = DIRECTION ( 'NONE',  ( 0.000000000000000000, -0.000000000000000000, 1.000000000000000000 ) ) ;
#235 = DIRECTION ( 'NONE',  ( -0.7071067811865474617, 8.659560562354932858E-17, 0.7071067811865474617 ) ) ;
#236 = AXIS2_PLACEMENT_3D ( 'NONE', #227, #169, #297 ) ;
#237 = CYLINDRICAL_SURFACE ( 'NONE', #175, 0.6562500000000000000 ) ;
#238 = DIRECTION ( 'NONE',  ( -0.000000000000000000, -0.000000000000000000, 1.000000000000000000 ) ) ;
#239 = FACE_BOUND ( 'NONE', #221, .T. ) ;
#240 = STYLED_ITEM ( 'NONE', ( #95 ), #330 ) ;
#241 = DIRECTION ( 'NONE',  ( 0.7071067811865474617, 0.000000000000000000, 0.7071067811865474617 ) ) ;
#242 = ORIENTED_EDGE ( 'NONE', *, *, #291, .F. ) ;
#243 = CARTESIAN_POINT ( 'NONE',  ( 0.000000000000000000, 0.000000000000000000, 0.000000000000000000 ) ) ;
#244 = CARTESIAN_POINT ( 'NONE',  ( 0.000000000000000000, 0.000000000000000000, -0.09842519685039338717 ) ) ;
#245 = EDGE_LOOP ( 'NONE', ( #151, #398, #73, #14 ) ) ;
#246 = DIRECTION ( 'NONE',  ( -1.000000000000000000, 0.000000000000000000, 0.000000000000000000 ) ) ;
#247 = ORIENTED_EDGE ( 'NONE', *, *, #172, .F. ) ;
#248 = AXIS2_PLACEMENT_3D ( 'NONE', #312, #33, #41 ) ;
#249 = CARTESIAN_POINT ( 'NONE',  ( 0.000000000000000000, 0.000000000000000000, 0.000000000000000000 ) ) ;
#250 = VERTEX_POINT ( 'NONE', #111 ) ;
#251 = DIRECTION ( 'NONE',  ( -0.000000000000000000, -0.000000000000000000, 1.000000000000000000 ) ) ;
#252 = ADVANCED_FACE ( 'NONE', ( #267 ), #114, .F. ) ;
#253 = VERTEX_POINT ( 'NONE', #307 ) ;
#254 = DIRECTION ( 'NONE',  ( 1.000000000000000000, 0.000000000000000000, 0.000000000000000000 ) ) ;
#255 = CARTESIAN_POINT ( 'NONE',  ( -1.000000000000000222, 1.224646799147353454E-16, -0.09842519685039338717 ) ) ;
#256 = EDGE_CURVE ( 'NONE', #329, #105, #149, .T. ) ;
#257 = FILL_AREA_STYLE_COLOUR ( '', #47 ) ;
#258 = VERTEX_POINT ( 'NONE', #45 ) ;
#259 = LINE ( 'NONE', #231, #115 ) ;
#260 = VECTOR ( 'NONE', #350, 39.37007874015748143 ) ;
#261 = ADVANCED_FACE ( 'NONE', ( #67 ), #144, .T. ) ;
#262 =( GEOMETRIC_REPRESENTATION_CONTEXT ( 3 ) GLOBAL_UNCERTAINTY_ASSIGNED_CONTEXT ( ( #279 ) ) GLOBAL_UNIT_ASSIGNED_CONTEXT ( ( #32, #193, #113 ) ) REPRESENTATION_CONTEXT ( 'NONE', 'WORKASPACE' ) );
#263 = EDGE_LOOP ( 'NONE', ( #346, #283, #180, #192 ) ) ;
#264 = CARTESIAN_POINT ( 'NONE',  ( 0.6562500000000000000, 0.000000000000000000, 0.000000000000000000 ) ) ;
#265 = CARTESIAN_POINT ( 'NONE',  ( 0.000000000000000000, 0.000000000000000000, -0.01968503937007916663 ) ) ;
#266 = APPLICATION_PROTOCOL_DEFINITION ( 'draft international standard', 'automotive_design', 1998, #2 ) ;
#267 = FACE_OUTER_BOUND ( 'NONE', #263, .T. ) ;
#268 = DIRECTION ( 'NONE',  ( 0.000000000000000000, 0.000000000000000000, -1.000000000000000000 ) ) ;
#269 = VECTOR ( 'NONE', #208, 39.37007874015748143 ) ;
#270 = CONICAL_SURFACE ( 'NONE', #372, 0.9803149606299209617, 0.7853981633974482790 ) ;
#271 =( GEOMETRIC_REPRESENTATION_CONTEXT ( 3 ) GLOBAL_UNCERTAINTY_ASSIGNED_CONTEXT ( ( #80 ) ) GLOBAL_UNIT_ASSIGNED_CONTEXT ( ( #84, #191, #52 ) ) REPRESENTATION_CONTEXT ( 'NONE', 'WORKASPACE' ) );
#272 = CARTESIAN_POINT ( 'NONE',  ( 0.000000000000000000, 0.000000000000000000, 0.000000000000000000 ) ) ;
#273 = SHAPE_DEFINITION_REPRESENTATION ( #336, #288 ) ;
#274 =( NAMED_UNIT ( * ) PLANE_ANGLE_UNIT ( ) SI_UNIT ( $, .RADIAN. ) );
#275 = ADVANCED_FACE ( 'NONE', ( #309 ), #20, .F. ) ;
#276 = AXIS2_PLACEMENT_3D ( 'NONE', #244, #286, #93 ) ;
#277 = ORIENTED_EDGE ( 'NONE', *, *, #306, .T. ) ;
#278 = LINE ( 'NONE', #39, #62 ) ;
#279 = UNCERTAINTY_MEASURE_WITH_UNIT (LENGTH_MEASURE( 1.000000000000000082E-05 ), #32, 'distance_accuracy_value', 'NONE');
#280 = ORIENTED_EDGE ( 'NONE', *, *, #303, .T. ) ;
#281 = CARTESIAN_POINT ( 'NONE',  ( -1.000000000000000222, 1.224646799147353454E-16, -0.09842519685039338717 ) ) ;
#282 = DIRECTION ( 'NONE',  ( -0.000000000000000000, -0.000000000000000000, 1.000000000000000000 ) ) ;
#283 = ORIENTED_EDGE ( 'NONE', *, *, #61, .F. ) ;
#284 = LINE ( 'NONE', #323, #26 ) ;
#285 = COLOUR_RGB ( '',0.8666666666666666963, 0.9098039215686274384, 1.000000000000000000 ) ;
#286 = DIRECTION ( 'NONE',  ( -0.000000000000000000, -0.000000000000000000, 1.000000000000000000 ) ) ;
#287 = ORIENTED_EDGE ( 'NONE', *, *, #124, .T. ) ;
#288 = ADVANCED_BREP_SHAPE_REPRESENTATION ( 'WCP-0444', ( #330, #328 ), #271 ) ;
#289 =( LENGTH_UNIT ( ) NAMED_UNIT ( * ) SI_UNIT ( $, .METRE. ) );
#290 = VERTEX_POINT ( 'NONE', #387 ) ;
#291 = EDGE_CURVE ( 'NONE', #219, #258, #361, .T. ) ;
#292 = VERTEX_POINT ( 'NONE', #15 ) ;
#293 = CIRCLE ( 'NONE', #92, 1.000000000000000222 ) ;
#294 =( GEOMETRIC_REPRESENTATION_CONTEXT ( 3 ) GLOBAL_UNCERTAINTY_ASSIGNED_CONTEXT ( ( #308 ) ) GLOBAL_UNIT_ASSIGNED_CONTEXT ( ( #351, #274, #341 ) ) REPRESENTATION_CONTEXT ( 'NONE', 'WORKASPACE' ) );
#295 = CYLINDRICAL_SURFACE ( 'NONE', #355, 1.000000000000000222 ) ;
#296 = ORIENTED_EDGE ( 'NONE', *, *, #388, .T. ) ;
#297 = DIRECTION ( 'NONE',  ( 1.000000000000000000, 0.000000000000000000, 0.000000000000000000 ) ) ;
#298 = PRESENTATION_LAYER_ASSIGNMENT (  '', '', ( #240 ) ) ;
#299 = PLANE ( 'NONE',  #170 ) ;
#300 = DIRECTION ( 'NONE',  ( -0.000000000000000000, -0.000000000000000000, 1.000000000000000000 ) ) ;
#301 = DIRECTION ( 'NONE',  ( 1.000000000000000000, 0.000000000000000000, 0.000000000000000000 ) ) ;
#302 = DIRECTION ( 'NONE',  ( -0.000000000000000000, -0.000000000000000000, 1.000000000000000000 ) ) ;
#303 = EDGE_CURVE ( 'NONE', #43, #120, #230, .T. ) ;
#304 = CIRCLE ( 'NONE', #7, 0.9803149606299210728 ) ;
#305 = DIRECTION ( 'NONE',  ( -0.000000000000000000, -0.000000000000000000, 1.000000000000000000 ) ) ;
#306 = EDGE_CURVE ( 'NONE', #129, #253, #278, .T. ) ;
#307 = CARTESIAN_POINT ( 'NONE',  ( 1.000000000000000222, 0.000000000000000000, -0.09842519685039338717 ) ) ;
#308 = UNCERTAINTY_MEASURE_WITH_UNIT (LENGTH_MEASURE( 1.000000000000000082E-05 ), #351, 'distance_accuracy_value', 'NONE');
#309 = FACE_OUTER_BOUND ( 'NONE', #376, .T. ) ;
#310 = AXIS2_PLACEMENT_3D ( 'NONE', #348, #13, #375 ) ;
#311 = ORIENTED_EDGE ( 'NONE', *, *, #37, .F. ) ;
#312 = CARTESIAN_POINT ( 'NONE',  ( 0.000000000000000000, 0.000000000000000000, -0.09842519685039338717 ) ) ;
#313 = CARTESIAN_POINT ( 'NONE',  ( 0.000000000000000000, 0.000000000000000000, -0.1181102362204724116 ) ) ;
#314 = PRODUCT_DEFINITION_CONTEXT ( 'detailed design', #2, 'design' ) ;
#315 = ORIENTED_EDGE ( 'NONE', *, *, #210, .T. ) ;
#316 = DIRECTION ( 'NONE',  ( 1.000000000000000000, 0.000000000000000000, 0.000000000000000000 ) ) ;
#317 = PRODUCT_RELATED_PRODUCT_CATEGORY ( 'part', '', ( #401 ) ) ;
#318 = DIRECTION ( 'NONE',  ( -0.000000000000000000, -0.000000000000000000, 1.000000000000000000 ) ) ;
#319 = VERTEX_POINT ( 'NONE', #150 ) ;
#320 = AXIS2_PLACEMENT_3D ( 'NONE', #199, #224, #360 ) ;
#321 = CARTESIAN_POINT ( 'NONE',  ( -0.6562500000000000000, 8.036744619404505191E-17, 0.000000000000000000 ) ) ;
#322 = ORIENTED_EDGE ( 'NONE', *, *, #31, .T. ) ;
#323 = CARTESIAN_POINT ( 'NONE',  ( 0.6562500000000000000, 0.000000000000000000, 0.000000000000000000 ) ) ;
#324 = LINE ( 'NONE', #51, #157 ) ;
#325 = CYLINDRICAL_SURFACE ( 'NONE', #76, 0.6562500000000000000 ) ;
#326 = DIRECTION ( 'NONE',  ( 1.000000000000000000, 0.000000000000000000, 0.000000000000000000 ) ) ;
#327 = VECTOR ( 'NONE', #371, 39.37007874015748854 ) ;
#328 = AXIS2_PLACEMENT_3D ( 'NONE', #34, #393, #142 ) ;
#329 = VERTEX_POINT ( 'NONE', #10 ) ;
#330 = MANIFOLD_SOLID_BREP ( 'Chamfer1', #16 ) ;
#331 = ORIENTED_EDGE ( 'NONE', *, *, #117, .T. ) ;
#332 = ADVANCED_FACE ( 'NONE', ( #378 ), #212, .T. ) ;
#333 = FACE_OUTER_BOUND ( 'NONE', #245, .T. ) ;
#334 = SURFACE_STYLE_FILL_AREA ( #162 ) ;
#335 = AXIS2_PLACEMENT_3D ( 'NONE', #264, #234, #403 ) ;
#336 = PRODUCT_DEFINITION_SHAPE ( 'NONE', 'NONE',  #184 ) ;
#337 = EDGE_CURVE ( 'NONE', #129, #290, #347, .T. ) ;
#338 = DIRECTION ( 'NONE',  ( 0.000000000000000000, 0.000000000000000000, -1.000000000000000000 ) ) ;
#339 = CARTESIAN_POINT ( 'NONE',  ( -0.5629999999999999449, 6.894761479199596848E-17, -0.06250000000000000000 ) ) ;
#340 = CIRCLE ( 'NONE', #320, 0.5629999999999999449 ) ;
#341 =( NAMED_UNIT ( * ) SI_UNIT ( $, .STERADIAN. ) SOLID_ANGLE_UNIT ( ) );
#342 = ORIENTED_EDGE ( 'NONE', *, *, #58, .F. ) ;
#343 = FACE_OUTER_BOUND ( 'NONE', #185, .T. ) ;
#344 = DIRECTION ( 'NONE',  ( -0.000000000000000000, -0.000000000000000000, 1.000000000000000000 ) ) ;
#345 = AXIS2_PLACEMENT_3D ( 'NONE', #75, #195, #301 ) ;
#346 = ORIENTED_EDGE ( 'NONE', *, *, #256, .F. ) ;
#347 = CIRCLE ( 'NONE', #400, 0.9803149606299210728 ) ;
#348 = CARTESIAN_POINT ( 'NONE',  ( 0.000000000000000000, 0.000000000000000000, -0.06250000000000000000 ) ) ;
#349 = ORIENTED_EDGE ( 'NONE', *, *, #228, .T. ) ;
#350 = DIRECTION ( 'NONE',  ( -0.000000000000000000, -0.000000000000000000, 1.000000000000000000 ) ) ;
#351 =( CONVERSION_BASED_UNIT ( 'INCH', #218 ) LENGTH_UNIT ( ) NAMED_UNIT ( #5 ) );
#352 = ORIENTED_EDGE ( 'NONE', *, *, #363, .T. ) ;
#353 = CARTESIAN_POINT ( 'NONE',  ( 1.000000000000000222, 0.000000000000000000, 0.000000000000000000 ) ) ;
#354 = ORIENTED_EDGE ( 'NONE', *, *, #374, .F. ) ;
#355 = AXIS2_PLACEMENT_3D ( 'NONE', #229, #402, #326 ) ;
#356 = CARTESIAN_POINT ( 'NONE',  ( 0.000000000000000000, 0.000000000000000000, 0.000000000000000000 ) ) ;
#357 = FACE_OUTER_BOUND ( 'NONE', #158, .T. ) ;
#358 = DIRECTION ( 'NONE',  ( -0.000000000000000000, -0.000000000000000000, 1.000000000000000000 ) ) ;
#359 = PLANE ( 'NONE',  #345 ) ;
#360 = DIRECTION ( 'NONE',  ( 1.000000000000000000, 0.000000000000000000, 0.000000000000000000 ) ) ;
#361 = CIRCLE ( 'NONE', #190, 1.000000000000000222 ) ;
#362 = PRODUCT_DEFINITION_FORMATION_WITH_SPECIFIED_SOURCE ( 'ANY', '', #401, .NOT_KNOWN. ) ;
#363 = EDGE_CURVE ( 'NONE', #24, #253, #18, .T. ) ;
#364 = EDGE_LOOP ( 'NONE', ( #21, #103, #391, #54 ) ) ;
#365 = ORIENTED_EDGE ( 'NONE', *, *, #96, .F. ) ;
#366 = DIRECTION ( 'NONE',  ( 1.000000000000000000, 0.000000000000000000, 0.000000000000000000 ) ) ;
#367 = DIRECTION ( 'NONE',  ( -0.000000000000000000, -0.000000000000000000, 1.000000000000000000 ) ) ;
#368 = EDGE_CURVE ( 'NONE', #43, #319, #284, .T. ) ;
#369 = CONICAL_SURFACE ( 'NONE', #163, 0.9803149606299209617, 0.7853981633974482790 ) ;
#370 = CARTESIAN_POINT ( 'NONE',  ( 0.000000000000000000, 0.000000000000000000, 0.000000000000000000 ) ) ;
#371 = DIRECTION ( 'NONE',  ( 0.7071067811865474617, 8.659560562354932858E-17, -0.7071067811865474617 ) ) ;
#372 = AXIS2_PLACEMENT_3D ( 'NONE', #249, #217, #101 ) ;
#373 = DIRECTION ( 'NONE',  ( 0.000000000000000000, 0.000000000000000000, -1.000000000000000000 ) ) ;
#374 = EDGE_CURVE ( 'NONE', #253, #219, #202, .T. ) ;
#375 = DIRECTION ( 'NONE',  ( 1.000000000000000000, 0.000000000000000000, 0.000000000000000000 ) ) ;
#376 = EDGE_LOOP ( 'NONE', ( #167, #396, #389, #385 ) ) ;
#377 = CARTESIAN_POINT ( 'NONE',  ( -0.6562500000000000000, 8.036744619404505191E-17, -0.06250000000000000000 ) ) ;
#378 = FACE_OUTER_BOUND ( 'NONE', #19, .T. ) ;
#379 = ORIENTED_EDGE ( 'NONE', *, *, #124, .F. ) ;
#380 = EDGE_CURVE ( 'NONE', #105, #250, #78, .T. ) ;
#381 = DIRECTION ( 'NONE',  ( -0.000000000000000000, -0.000000000000000000, 1.000000000000000000 ) ) ;
#382 = AXIS2_PLACEMENT_3D ( 'NONE', #137, #27, #108 ) ;
#383 = EDGE_LOOP ( 'NONE', ( #56, #50 ) ) ;
#384 = DIRECTION ( 'NONE',  ( 1.000000000000000000, 0.000000000000000000, 0.000000000000000000 ) ) ;
#385 = ORIENTED_EDGE ( 'NONE', *, *, #88, .F. ) ;
#386 = CARTESIAN_POINT ( 'NONE',  ( -1.000000000000000222, 1.224646799147353454E-16, 0.000000000000000000 ) ) ;
#387 = CARTESIAN_POINT ( 'NONE',  ( -0.9803149606299210728, 1.212593188919524844E-16, -0.1181102362204724116 ) ) ;
#388 = EDGE_CURVE ( 'NONE', #120, #81, #395, .T. ) ;
#389 = ORIENTED_EDGE ( 'NONE', *, *, #380, .T. ) ;
#390 = DIRECTION ( 'NONE',  ( -1.000000000000000000, 0.000000000000000000, 0.000000000000000000 ) ) ;
#391 = ORIENTED_EDGE ( 'NONE', *, *, #117, .F. ) ;
#392 = AXIS2_PLACEMENT_3D ( 'NONE', #183, #282, #122 ) ;
#393 = DIRECTION ( 'NONE',  ( 0.000000000000000000, 0.000000000000000000, 1.000000000000000000 ) ) ;
#394 = EDGE_LOOP ( 'NONE', ( #40, #69 ) ) ;
#395 = LINE ( 'NONE', #321, #164 ) ;
#396 = ORIENTED_EDGE ( 'NONE', *, *, #256, .T. ) ;
#397 = EDGE_CURVE ( 'NONE', #290, #129, #304, .T. ) ;
#398 = ORIENTED_EDGE ( 'NONE', *, *, #303, .F. ) ;
#399 = AXIS2_PLACEMENT_3D ( 'NONE', #370, #305, #147 ) ;
#400 = AXIS2_PLACEMENT_3D ( 'NONE', #313, #153, #246 ) ;
#401 = PRODUCT ( 'WCP-0444', 'WCP-0444', '', ( #135 ) ) ;
#402 = DIRECTION ( 'NONE',  ( -0.000000000000000000, -0.000000000000000000, 1.000000000000000000 ) ) ;
#403 = DIRECTION ( 'NONE',  ( 1.000000000000000000, 0.000000000000000000, 0.000000000000000000 ) ) ;
ENDSEC;
END-ISO-10303-21;
