ISO-10303-21;
HEADER;
FILE_DESCRIPTION (( 'STEP AP214' ),
    '1' );
FILE_NAME ('WCP-0329.step',
    '2024-02-17T00:45:44',
    ( '' ),
    ( '' ),
    'SwSTEP 2.0',
    'SolidWorks 2022',
    '' );
FILE_SCHEMA (( 'AUTOMOTIVE_DESIGN' ));
ENDSEC;

DATA;
#1 =( NAMED_UNIT ( * ) PLANE_ANGLE_UNIT ( ) SI_UNIT ( $, .RADIAN. ) );
#2 = DIRECTION ( 'NONE',  ( 0.000000000000000000, 0.000000000000000000, 1.000000000000000000 ) ) ;
#3 = FACE_OUTER_BOUND ( 'NONE', #216, .T. ) ;
#4 = DIRECTION ( 'NONE',  ( 1.000000000000000000, 0.000000000000000000, 0.000000000000000000 ) ) ;
#5 = EDGE_LOOP ( 'NONE', ( #122, #87 ) ) ;
#6 = FILL_AREA_STYLE ('',( #146 ) ) ;
#7 = VERTEX_POINT ( 'NONE', #85 ) ;
#8 = DIMENSIONAL_EXPONENTS ( 1.000000000000000000, 0.000000000000000000, 0.000000000000000000, 0.000000000000000000, 0.000000000000000000, 0.000000000000000000, 0.000000000000000000 ) ;
#9 = PRODUCT_DEFINITION ( 'UNKNOWN', '', #93, #185 ) ;
#10 = AXIS2_PLACEMENT_3D ( 'NONE', #207, #42, #57 ) ;
#11 = ORIENTED_EDGE ( 'NONE', *, *, #43, .F. ) ;
#12 = EDGE_CURVE ( 'NONE', #80, #211, #97, .T. ) ;
#13 = ORIENTED_EDGE ( 'NONE', *, *, #220, .F. ) ;
#14 =( NAMED_UNIT ( * ) SI_UNIT ( $, .STERADIAN. ) SOLID_ANGLE_UNIT ( ) );
#15 = CARTESIAN_POINT ( 'NONE',  ( 0.2187500000000000000, 0.000000000000000000, 0.000000000000000000 ) ) ;
#16 = CARTESIAN_POINT ( 'NONE',  ( 0.2187500000000000000, 2.290089514405551281E-17, -0.1870000000000000551 ) ) ;
#17 = MECHANICAL_DESIGN_GEOMETRIC_PRESENTATION_REPRESENTATION (  '', ( #208 ), #102 ) ;
#18 = ORIENTED_EDGE ( 'NONE', *, *, #183, .F. ) ;
#19 = SHAPE_DEFINITION_REPRESENTATION ( #34, #184 ) ;
#20 = DIRECTION ( 'NONE',  ( -1.000000000000000000, -0.000000000000000000, -0.000000000000000000 ) ) ;
#21 = EDGE_LOOP ( 'NONE', ( #31, #53, #218, #166 ) ) ;
#22 = EDGE_CURVE ( 'NONE', #7, #114, #79, .T. ) ;
#23 = ORIENTED_EDGE ( 'NONE', *, *, #12, .T. ) ;
#24 = PLANE ( 'NONE',  #29 ) ;
#25 = MANIFOLD_SOLID_BREP ( 'Boss-Extrude1', #118 ) ;
#26 = LINE ( 'NONE', #196, #148 ) ;
#27 = EDGE_LOOP ( 'NONE', ( #144, #83, #81, #200 ) ) ;
#28 = FACE_OUTER_BOUND ( 'NONE', #5, .T. ) ;
#29 = AXIS2_PLACEMENT_3D ( 'NONE', #77, #159, #212 ) ;
#30 = VERTEX_POINT ( 'NONE', #39 ) ;
#31 = ORIENTED_EDGE ( 'NONE', *, *, #220, .T. ) ;
#32 = CARTESIAN_POINT ( 'NONE',  ( -0.2187500000000000000, 1.200153863164406105E-17, -0.09800000000000000377 ) ) ;
#33 = DIRECTION ( 'NONE',  ( 1.000000000000000000, 0.000000000000000000, 0.000000000000000000 ) ) ;
#34 = PRODUCT_DEFINITION_SHAPE ( 'NONE', 'NONE',  #9 ) ;
#35 = DIRECTION ( 'NONE',  ( 1.000000000000000000, 0.000000000000000000, 0.000000000000000000 ) ) ;
#36 = PRODUCT_CONTEXT ( 'NONE', #130, 'mechanical' ) ;
#37 = CARTESIAN_POINT ( 'NONE',  ( 0.2187500000000000000, 1.200153863164406105E-17, -0.09800000000000000377 ) ) ;
#38 = SURFACE_STYLE_USAGE ( .BOTH. , #209 ) ;
#39 = CARTESIAN_POINT ( 'NONE',  ( 0.2187500000000000000, 1.200153863164406105E-17, -0.09800000000000000377 ) ) ;
#40 = AXIS2_PLACEMENT_3D ( 'NONE', #15, #119, #100 ) ;
#41 = PRESENTATION_LAYER_ASSIGNMENT (  '', '', ( #129 ) ) ;
#42 = DIRECTION ( 'NONE',  ( 1.000000000000000000, 0.000000000000000000, 0.000000000000000000 ) ) ;
#43 = EDGE_CURVE ( 'NONE', #30, #205, #55, .T. ) ;
#44 = ORIENTED_EDGE ( 'NONE', *, *, #183, .T. ) ;
#45 = AXIS2_PLACEMENT_3D ( 'NONE', #149, #20, #2 ) ;
#46 = DIRECTION ( 'NONE',  ( -1.000000000000000000, -0.000000000000000000, -0.000000000000000000 ) ) ;
#47 = ADVANCED_FACE ( 'NONE', ( #90 ), #75, .T. ) ;
#48 = ORIENTED_EDGE ( 'NONE', *, *, #124, .T. ) ;
#49 = AXIS2_PLACEMENT_3D ( 'NONE', #125, #35, #195 ) ;
#50 = ADVANCED_FACE ( 'NONE', ( #3, #62 ), #73, .T. ) ;
#51 = SURFACE_SIDE_STYLE ('',( #82 ) ) ;
#52 = DIRECTION ( 'NONE',  ( 0.000000000000000000, 0.000000000000000000, -1.000000000000000000 ) ) ;
#53 = ORIENTED_EDGE ( 'NONE', *, *, #43, .T. ) ;
#54 =( LENGTH_UNIT ( ) NAMED_UNIT ( * ) SI_UNIT ( $, .METRE. ) );
#55 = LINE ( 'NONE', #37, #66 ) ;
#56 =( NAMED_UNIT ( * ) PLANE_ANGLE_UNIT ( ) SI_UNIT ( $, .RADIAN. ) );
#57 = DIRECTION ( 'NONE',  ( 0.000000000000000000, 0.000000000000000000, -1.000000000000000000 ) ) ;
#58 = PRESENTATION_STYLE_ASSIGNMENT (( #38 ) ) ;
#59 = LENGTH_MEASURE_WITH_UNIT ( LENGTH_MEASURE( 0.02539999999999999897 ), #139 );
#60 = AXIS2_PLACEMENT_3D ( 'NONE', #94, #164, #52 ) ;
#61 =( GEOMETRIC_REPRESENTATION_CONTEXT ( 3 ) GLOBAL_UNCERTAINTY_ASSIGNED_CONTEXT ( ( #64 ) ) GLOBAL_UNIT_ASSIGNED_CONTEXT ( ( #98, #169, #14 ) ) REPRESENTATION_CONTEXT ( 'NONE', 'WORKASPACE' ) );
#62 = FACE_BOUND ( 'NONE', #92, .T. ) ;
#63 = CYLINDRICAL_SURFACE ( 'NONE', #158, 0.09800000000000000377 ) ;
#64 = UNCERTAINTY_MEASURE_WITH_UNIT (LENGTH_MEASURE( 1.000000000000000082E-05 ), #98, 'distance_accuracy_value', 'NONE');
#65 = ORIENTED_EDGE ( 'NONE', *, *, #162, .T. ) ;
#66 = VECTOR ( 'NONE', #174, 39.37007874015748143 ) ;
#67 = DIRECTION ( 'NONE',  ( 0.000000000000000000, 0.000000000000000000, -1.000000000000000000 ) ) ;
#68 = DIRECTION ( 'NONE',  ( -1.000000000000000000, -0.000000000000000000, -0.000000000000000000 ) ) ;
#69 = FILL_AREA_STYLE_COLOUR ( '', #182 ) ;
#70 =( CONVERSION_BASED_UNIT ( 'INCH', #59 ) LENGTH_UNIT ( ) NAMED_UNIT ( #8 ) );
#71 = DIRECTION ( 'NONE',  ( 1.000000000000000000, 0.000000000000000000, 0.000000000000000000 ) ) ;
#72 = PRODUCT ( 'WCP-0329', 'WCP-0329', '', ( #36 ) ) ;
#73 = PLANE ( 'NONE',  #49 ) ;
#74 = EDGE_CURVE ( 'NONE', #135, #205, #168, .T. ) ;
#75 = CYLINDRICAL_SURFACE ( 'NONE', #45, 0.1870000000000000551 ) ;
#76 = EDGE_CURVE ( 'NONE', #211, #80, #107, .T. ) ;
#77 = CARTESIAN_POINT ( 'NONE',  ( -0.2187500000000000000, 0.000000000000000000, 0.000000000000000000 ) ) ;
#78 = APPLICATION_CONTEXT ( 'automotive_design' ) ;
#79 = CIRCLE ( 'NONE', #126, 0.1870000000000000551 ) ;
#80 = VERTEX_POINT ( 'NONE', #88 ) ;
#81 = ORIENTED_EDGE ( 'NONE', *, *, #199, .T. ) ;
#82 = SURFACE_STYLE_FILL_AREA ( #143 ) ;
#83 = ORIENTED_EDGE ( 'NONE', *, *, #110, .T. ) ;
#84 = EDGE_LOOP ( 'NONE', ( #115, #161, #215, #141 ) ) ;
#85 = CARTESIAN_POINT ( 'NONE',  ( -0.2187500000000000000, 0.000000000000000000, 0.1870000000000000551 ) ) ;
#86 = AXIS2_PLACEMENT_3D ( 'NONE', #101, #191, #190 ) ;
#87 = ORIENTED_EDGE ( 'NONE', *, *, #199, .F. ) ;
#88 = CARTESIAN_POINT ( 'NONE',  ( 0.2187500000000000000, 0.000000000000000000, 0.1870000000000000551 ) ) ;
#89 = ADVANCED_FACE ( 'NONE', ( #105 ), #151, .T. ) ;
#90 = FACE_OUTER_BOUND ( 'NONE', #27, .T. ) ;
#91 = DIRECTION ( 'NONE',  ( -1.000000000000000000, -0.000000000000000000, -0.000000000000000000 ) ) ;
#92 = EDGE_LOOP ( 'NONE', ( #13, #18 ) ) ;
#93 = PRODUCT_DEFINITION_FORMATION_WITH_SPECIFIED_SOURCE ( 'ANY', '', #72, .NOT_KNOWN. ) ;
#94 = CARTESIAN_POINT ( 'NONE',  ( -0.2187500000000000000, 0.000000000000000000, 0.000000000000000000 ) ) ;
#95 = ORIENTED_EDGE ( 'NONE', *, *, #162, .F. ) ;
#96 = CARTESIAN_POINT ( 'NONE',  ( 0.2187500000000000000, 0.000000000000000000, 0.000000000000000000 ) ) ;
#97 = CIRCLE ( 'NONE', #194, 0.1870000000000000551 ) ;
#98 =( CONVERSION_BASED_UNIT ( 'INCH', #204 ) LENGTH_UNIT ( ) NAMED_UNIT ( #186 ) );
#99 = DIRECTION ( 'NONE',  ( 1.000000000000000000, 0.000000000000000000, 0.000000000000000000 ) ) ;
#100 = DIRECTION ( 'NONE',  ( 0.000000000000000000, 0.000000000000000000, 1.000000000000000000 ) ) ;
#101 = CARTESIAN_POINT ( 'NONE',  ( 0.2187500000000000000, 0.000000000000000000, 0.000000000000000000 ) ) ;
#102 =( GEOMETRIC_REPRESENTATION_CONTEXT ( 3 ) GLOBAL_UNCERTAINTY_ASSIGNED_CONTEXT ( ( #188 ) ) GLOBAL_UNIT_ASSIGNED_CONTEXT ( ( #70, #1, #134 ) ) REPRESENTATION_CONTEXT ( 'NONE', 'WORKASPACE' ) );
#103 = AXIS2_PLACEMENT_3D ( 'NONE', #133, #99, #131 ) ;
#104 = SURFACE_STYLE_FILL_AREA ( #6 ) ;
#105 = FACE_OUTER_BOUND ( 'NONE', #84, .T. ) ;
#106 = EDGE_LOOP ( 'NONE', ( #180, #65 ) ) ;
#107 = CIRCLE ( 'NONE', #86, 0.1870000000000000551 ) ;
#108 =( GEOMETRIC_REPRESENTATION_CONTEXT ( 3 ) GLOBAL_UNCERTAINTY_ASSIGNED_CONTEXT ( ( #112 ) ) GLOBAL_UNIT_ASSIGNED_CONTEXT ( ( #189, #56, #128 ) ) REPRESENTATION_CONTEXT ( 'NONE', 'WORKASPACE' ) );
#109 = LINE ( 'NONE', #214, #197 ) ;
#110 = EDGE_CURVE ( 'NONE', #211, #114, #171, .T. ) ;
#111 = ORIENTED_EDGE ( 'NONE', *, *, #76, .T. ) ;
#112 = UNCERTAINTY_MEASURE_WITH_UNIT (LENGTH_MEASURE( 1.000000000000000082E-05 ), #189, 'distance_accuracy_value', 'NONE');
#113 = DIRECTION ( 'NONE',  ( 0.000000000000000000, 0.000000000000000000, 1.000000000000000000 ) ) ;
#114 = VERTEX_POINT ( 'NONE', #213 ) ;
#115 = ORIENTED_EDGE ( 'NONE', *, *, #110, .F. ) ;
#116 = PRESENTATION_STYLE_ASSIGNMENT (( #147 ) ) ;
#117 = FACE_OUTER_BOUND ( 'NONE', #21, .T. ) ;
#118 = CLOSED_SHELL ( 'NONE', ( #170, #47, #50, #138, #89, #120 ) ) ;
#119 = DIRECTION ( 'NONE',  ( -1.000000000000000000, -0.000000000000000000, -0.000000000000000000 ) ) ;
#120 = ADVANCED_FACE ( 'NONE', ( #181 ), #63, .F. ) ;
#121 = DIRECTION ( 'NONE',  ( -1.000000000000000000, -0.000000000000000000, -0.000000000000000000 ) ) ;
#122 = ORIENTED_EDGE ( 'NONE', *, *, #22, .F. ) ;
#123 = DIRECTION ( 'NONE',  ( 0.000000000000000000, 0.000000000000000000, -1.000000000000000000 ) ) ;
#124 = EDGE_CURVE ( 'NONE', #156, #135, #109, .T. ) ;
#125 = CARTESIAN_POINT ( 'NONE',  ( 0.2187500000000000000, 0.000000000000000000, 0.000000000000000000 ) ) ;
#126 = AXIS2_PLACEMENT_3D ( 'NONE', #206, #172, #123 ) ;
#127 = AXIS2_PLACEMENT_3D ( 'NONE', #96, #71, #67 ) ;
#128 =( NAMED_UNIT ( * ) SI_UNIT ( $, .STERADIAN. ) SOLID_ANGLE_UNIT ( ) );
#129 = STYLED_ITEM ( 'NONE', ( #116 ), #184 ) ;
#130 = APPLICATION_CONTEXT ( 'automotive_design' ) ;
#131 = DIRECTION ( 'NONE',  ( 0.000000000000000000, 0.000000000000000000, -1.000000000000000000 ) ) ;
#132 = CIRCLE ( 'NONE', #60, 0.09800000000000000377 ) ;
#133 = CARTESIAN_POINT ( 'NONE',  ( -0.2187500000000000000, 0.000000000000000000, 0.000000000000000000 ) ) ;
#134 =( NAMED_UNIT ( * ) SI_UNIT ( $, .STERADIAN. ) SOLID_ANGLE_UNIT ( ) );
#135 = VERTEX_POINT ( 'NONE', #175 ) ;
#136 = VECTOR ( 'NONE', #121, 39.37007874015748143 ) ;
#137 = CIRCLE ( 'NONE', #127, 0.09800000000000000377 ) ;
#138 = ADVANCED_FACE ( 'NONE', ( #28, #179 ), #24, .F. ) ;
#139 =( LENGTH_UNIT ( ) NAMED_UNIT ( * ) SI_UNIT ( $, .METRE. ) );
#140 = AXIS2_PLACEMENT_3D ( 'NONE', #152, #154, #4 ) ;
#141 = ORIENTED_EDGE ( 'NONE', *, *, #22, .T. ) ;
#142 = DIRECTION ( 'NONE',  ( 0.000000000000000000, 0.000000000000000000, 1.000000000000000000 ) ) ;
#143 = FILL_AREA_STYLE ('',( #69 ) ) ;
#144 = ORIENTED_EDGE ( 'NONE', *, *, #76, .F. ) ;
#145 = APPLICATION_PROTOCOL_DEFINITION ( 'draft international standard', 'automotive_design', 1998, #130 ) ;
#146 = FILL_AREA_STYLE_COLOUR ( '', #153 ) ;
#147 = SURFACE_STYLE_USAGE ( .BOTH. , #51 ) ;
#148 = VECTOR ( 'NONE', #91, 39.37007874015748143 ) ;
#149 = CARTESIAN_POINT ( 'NONE',  ( 0.2187500000000000000, 0.000000000000000000, 0.000000000000000000 ) ) ;
#150 = DIRECTION ( 'NONE',  ( 0.000000000000000000, 0.000000000000000000, -1.000000000000000000 ) ) ;
#151 = CYLINDRICAL_SURFACE ( 'NONE', #40, 0.1870000000000000551 ) ;
#152 = CARTESIAN_POINT ( 'NONE',  ( 0.000000000000000000, 0.000000000000000000, 0.000000000000000000 ) ) ;
#153 = COLOUR_RGB ( '',0.2980392156862745057, 0.2980392156862745057, 0.2980392156862745057 ) ;
#154 = DIRECTION ( 'NONE',  ( 0.000000000000000000, 0.000000000000000000, 1.000000000000000000 ) ) ;
#155 = EDGE_CURVE ( 'NONE', #80, #7, #26, .T. ) ;
#156 = VERTEX_POINT ( 'NONE', #160 ) ;
#157 = CARTESIAN_POINT ( 'NONE',  ( 0.2187500000000000000, 0.000000000000000000, 0.000000000000000000 ) ) ;
#158 = AXIS2_PLACEMENT_3D ( 'NONE', #163, #46, #113 ) ;
#159 = DIRECTION ( 'NONE',  ( 1.000000000000000000, 0.000000000000000000, 0.000000000000000000 ) ) ;
#160 = CARTESIAN_POINT ( 'NONE',  ( 0.2187500000000000000, 0.000000000000000000, 0.09800000000000000377 ) ) ;
#161 = ORIENTED_EDGE ( 'NONE', *, *, #12, .F. ) ;
#162 = EDGE_CURVE ( 'NONE', #205, #135, #132, .T. ) ;
#163 = CARTESIAN_POINT ( 'NONE',  ( 0.2187500000000000000, 0.000000000000000000, 0.000000000000000000 ) ) ;
#164 = DIRECTION ( 'NONE',  ( 1.000000000000000000, 0.000000000000000000, 0.000000000000000000 ) ) ;
#165 = CARTESIAN_POINT ( 'NONE',  ( 0.2187500000000000000, 2.290089514405551281E-17, -0.1870000000000000551 ) ) ;
#166 = ORIENTED_EDGE ( 'NONE', *, *, #124, .F. ) ;
#167 =( LENGTH_UNIT ( ) NAMED_UNIT ( * ) SI_UNIT ( $, .METRE. ) );
#168 = CIRCLE ( 'NONE', #10, 0.09800000000000000377 ) ;
#169 =( NAMED_UNIT ( * ) PLANE_ANGLE_UNIT ( ) SI_UNIT ( $, .RADIAN. ) );
#170 = ADVANCED_FACE ( 'NONE', ( #117 ), #217, .F. ) ;
#171 = LINE ( 'NONE', #16, #136 ) ;
#172 = DIRECTION ( 'NONE',  ( 1.000000000000000000, 0.000000000000000000, 0.000000000000000000 ) ) ;
#173 = APPLICATION_PROTOCOL_DEFINITION ( 'draft international standard', 'automotive_design', 1998, #78 ) ;
#174 = DIRECTION ( 'NONE',  ( -1.000000000000000000, -0.000000000000000000, -0.000000000000000000 ) ) ;
#175 = CARTESIAN_POINT ( 'NONE',  ( -0.2187500000000000000, 0.000000000000000000, 0.09800000000000000377 ) ) ;
#176 = PRODUCT_RELATED_PRODUCT_CATEGORY ( 'part', '', ( #72 ) ) ;
#177 = CIRCLE ( 'NONE', #103, 0.1870000000000000551 ) ;
#178 = EDGE_LOOP ( 'NONE', ( #11, #44, #48, #95 ) ) ;
#179 = FACE_BOUND ( 'NONE', #106, .T. ) ;
#180 = ORIENTED_EDGE ( 'NONE', *, *, #74, .T. ) ;
#181 = FACE_OUTER_BOUND ( 'NONE', #178, .T. ) ;
#182 = COLOUR_RGB ( '',0.2980392156862745057, 0.2980392156862745057, 0.2980392156862745057 ) ;
#183 = EDGE_CURVE ( 'NONE', #30, #156, #192, .T. ) ;
#184 = ADVANCED_BREP_SHAPE_REPRESENTATION ( 'WCP-0329', ( #25, #140 ), #61 ) ;
#185 = PRODUCT_DEFINITION_CONTEXT ( 'detailed design', #78, 'design' ) ;
#186 = DIMENSIONAL_EXPONENTS ( 1.000000000000000000, 0.000000000000000000, 0.000000000000000000, 0.000000000000000000, 0.000000000000000000, 0.000000000000000000, 0.000000000000000000 ) ;
#187 = CARTESIAN_POINT ( 'NONE',  ( 0.2187500000000000000, 0.000000000000000000, 0.000000000000000000 ) ) ;
#188 = UNCERTAINTY_MEASURE_WITH_UNIT (LENGTH_MEASURE( 1.000000000000000082E-05 ), #70, 'distance_accuracy_value', 'NONE');
#189 =( CONVERSION_BASED_UNIT ( 'INCH', #202 ) LENGTH_UNIT ( ) NAMED_UNIT ( #219 ) );
#190 = DIRECTION ( 'NONE',  ( 0.000000000000000000, 0.000000000000000000, -1.000000000000000000 ) ) ;
#191 = DIRECTION ( 'NONE',  ( 1.000000000000000000, 0.000000000000000000, 0.000000000000000000 ) ) ;
#192 = CIRCLE ( 'NONE', #201, 0.09800000000000000377 ) ;
#193 = DIRECTION ( 'NONE',  ( 1.000000000000000000, 0.000000000000000000, 0.000000000000000000 ) ) ;
#194 = AXIS2_PLACEMENT_3D ( 'NONE', #157, #193, #150 ) ;
#195 = DIRECTION ( 'NONE',  ( 0.000000000000000000, 0.000000000000000000, -1.000000000000000000 ) ) ;
#196 = CARTESIAN_POINT ( 'NONE',  ( 0.2187500000000000000, 0.000000000000000000, 0.1870000000000000551 ) ) ;
#197 = VECTOR ( 'NONE', #198, 39.37007874015748143 ) ;
#198 = DIRECTION ( 'NONE',  ( -1.000000000000000000, -0.000000000000000000, -0.000000000000000000 ) ) ;
#199 = EDGE_CURVE ( 'NONE', #114, #7, #177, .T. ) ;
#200 = ORIENTED_EDGE ( 'NONE', *, *, #155, .F. ) ;
#201 = AXIS2_PLACEMENT_3D ( 'NONE', #223, #33, #203 ) ;
#202 = LENGTH_MEASURE_WITH_UNIT ( LENGTH_MEASURE( 0.02539999999999999897 ), #54 );
#203 = DIRECTION ( 'NONE',  ( 0.000000000000000000, 0.000000000000000000, -1.000000000000000000 ) ) ;
#204 = LENGTH_MEASURE_WITH_UNIT ( LENGTH_MEASURE( 0.02539999999999999897 ), #167 );
#205 = VERTEX_POINT ( 'NONE', #32 ) ;
#206 = CARTESIAN_POINT ( 'NONE',  ( -0.2187500000000000000, 0.000000000000000000, 0.000000000000000000 ) ) ;
#207 = CARTESIAN_POINT ( 'NONE',  ( -0.2187500000000000000, 0.000000000000000000, 0.000000000000000000 ) ) ;
#208 = STYLED_ITEM ( 'NONE', ( #58 ), #25 ) ;
#209 = SURFACE_SIDE_STYLE ('',( #104 ) ) ;
#210 = PRESENTATION_LAYER_ASSIGNMENT (  '', '', ( #208 ) ) ;
#211 = VERTEX_POINT ( 'NONE', #165 ) ;
#212 = DIRECTION ( 'NONE',  ( 0.000000000000000000, 0.000000000000000000, -1.000000000000000000 ) ) ;
#213 = CARTESIAN_POINT ( 'NONE',  ( -0.2187500000000000000, 2.290089514405551281E-17, -0.1870000000000000551 ) ) ;
#214 = CARTESIAN_POINT ( 'NONE',  ( 0.2187500000000000000, 0.000000000000000000, 0.09800000000000000377 ) ) ;
#215 = ORIENTED_EDGE ( 'NONE', *, *, #155, .T. ) ;
#216 = EDGE_LOOP ( 'NONE', ( #23, #111 ) ) ;
#217 = CYLINDRICAL_SURFACE ( 'NONE', #221, 0.09800000000000000377 ) ;
#218 = ORIENTED_EDGE ( 'NONE', *, *, #74, .F. ) ;
#219 = DIMENSIONAL_EXPONENTS ( 1.000000000000000000, 0.000000000000000000, 0.000000000000000000, 0.000000000000000000, 0.000000000000000000, 0.000000000000000000, 0.000000000000000000 ) ;
#220 = EDGE_CURVE ( 'NONE', #156, #30, #137, .T. ) ;
#221 = AXIS2_PLACEMENT_3D ( 'NONE', #187, #68, #142 ) ;
#222 = MECHANICAL_DESIGN_GEOMETRIC_PRESENTATION_REPRESENTATION (  '', ( #129 ), #108 ) ;
#223 = CARTESIAN_POINT ( 'NONE',  ( 0.2187500000000000000, 0.000000000000000000, 0.000000000000000000 ) ) ;
ENDSEC;
END-ISO-10303-21;
