ISO-10303-21;
HEADER;
FILE_DESCRIPTION (( 'STEP AP203' ),
    '1' );
FILE_NAME ('WCP-0310.STEP',
    '2021-04-16T22:24:10',
    ( '' ),
    ( '' ),
    'SwSTEP 2.0',
    'SolidWorks 2020',
    '' );
FILE_SCHEMA (( 'CONFIG_CONTROL_DESIGN' ));
ENDSEC;

DATA;
#1 = MECHANICAL_CONTEXT ( 'NONE', #73, 'mechanical' ) ;
#2 = APPROVAL_DATE_TIME ( #21, #65 ) ;
#3 = CC_DESIGN_PERSON_AND_ORGANIZATION_ASSIGNMENT ( #123, #198, ( #13 ) ) ;
#4 = EDGE_LOOP ( 'NONE', ( #145, #26, #101, #201 ) ) ;
#5 = VERTEX_POINT ( 'NONE', #225 ) ;
#6 = AXIS2_PLACEMENT_3D ( 'NONE', #232, #116, #118 ) ;
#7 = ORIENTED_EDGE ( 'NONE', *, *, #85, .T. ) ;
#8 = ORIENTED_EDGE ( 'NONE', *, *, #130, .F. ) ;
#9 = PERSON ( 'UNSPECIFIED', 'UNSPECIFIED', 'UNSPECIFIED', ('UNSPECIFIED'), ('UNSPECIFIED'), ('UNSPECIFIED') ) ;
#10 = DIRECTION ( 'NONE',  ( 0.000000000000000000, 0.000000000000000000, 1.000000000000000000 ) ) ;
#11 = ADVANCED_FACE ( 'NONE', ( #29, #188 ), #87, .F. ) ;
#12 = AXIS2_PLACEMENT_3D ( 'NONE', #92, #35, #211 ) ;
#13 = PRODUCT_DEFINITION_FORMATION_WITH_SPECIFIED_SOURCE ( 'ANY', '', #110, .NOT_KNOWN. ) ;
#14 = DIRECTION ( 'NONE',  ( -1.000000000000000000, -0.000000000000000000, -0.000000000000000000 ) ) ;
#15 = DIRECTION ( 'NONE',  ( 0.000000000000000000, 0.000000000000000000, -1.000000000000000000 ) ) ;
#16 = AXIS2_PLACEMENT_3D ( 'NONE', #205, #224, #185 ) ;
#17 = CARTESIAN_POINT ( 'NONE',  ( -1.125000000000000000, 0.000000000000000000, 0.000000000000000000 ) ) ;
#18 = PRODUCT_DEFINITION_SHAPE ( 'NONE', 'NONE',  #103 ) ;
#19 = CYLINDRICAL_SURFACE ( 'NONE', #12, 0.09800000000000000377 ) ;
#20 = APPLICATION_PROTOCOL_DEFINITION ( 'international standard', 'config_control_design', 1994, #144 ) ;
#21 = DATE_AND_TIME ( #45, #131 ) ;
#22 = ADVANCED_FACE ( 'NONE', ( #49 ), #111, .T. ) ;
#23 = PERSON_AND_ORGANIZATION_ROLE ( 'design_owner' ) ;
#24 = CIRCLE ( 'NONE', #148, 0.1870000000000000551 ) ;
#25 = PERSON_AND_ORGANIZATION_ROLE ( 'creator' ) ;
#26 = ORIENTED_EDGE ( 'NONE', *, *, #210, .F. ) ;
#27 = VECTOR ( 'NONE', #194, 39.37007874015748143 ) ;
#28 = CARTESIAN_POINT ( 'NONE',  ( -1.125000000000000000, 0.000000000000000000, 0.000000000000000000 ) ) ;
#29 = FACE_OUTER_BOUND ( 'NONE', #142, .T. ) ;
#30 = AXIS2_PLACEMENT_3D ( 'NONE', #75, #135, #209 ) ;
#31 = VERTEX_POINT ( 'NONE', #204 ) ;
#32 = EDGE_CURVE ( 'NONE', #176, #5, #244, .T. ) ;
#33 = CARTESIAN_POINT ( 'NONE',  ( -1.125000000000000000, 0.000000000000000000, 0.09800000000000000377 ) ) ;
#34 = DIRECTION ( 'NONE',  ( -1.000000000000000000, -0.000000000000000000, -0.000000000000000000 ) ) ;
#35 = DIRECTION ( 'NONE',  ( -1.000000000000000000, -0.000000000000000000, -0.000000000000000000 ) ) ;
#36 = CARTESIAN_POINT ( 'NONE',  ( 1.125000000000000000, 1.200153863164406105E-17, -0.09800000000000000377 ) ) ;
#37 = EDGE_CURVE ( 'NONE', #90, #180, #233, .T. ) ;
#38 = DATE_TIME_ROLE ( 'creation_date' ) ;
#39 = CIRCLE ( 'NONE', #181, 0.09800000000000000377 ) ;
#40 = ADVANCED_FACE ( 'NONE', ( #109 ), #159, .T. ) ;
#41 = CALENDAR_DATE ( 2021, 16, 4 ) ;
#42 = ORIENTED_EDGE ( 'NONE', *, *, #171, .F. ) ;
#43 = ORIENTED_EDGE ( 'NONE', *, *, #147, .F. ) ;
#44 = CIRCLE ( 'NONE', #105, 0.1870000000000000551 ) ;
#45 = CALENDAR_DATE ( 2021, 16, 4 ) ;
#46 = VERTEX_POINT ( 'NONE', #88 ) ;
#47 = ORIENTED_EDGE ( 'NONE', *, *, #37, .F. ) ;
#48 = ADVANCED_FACE ( 'NONE', ( #163 ), #249, .F. ) ;
#49 = FACE_OUTER_BOUND ( 'NONE', #126, .T. ) ;
#50 = VECTOR ( 'NONE', #247, 39.37007874015748143 ) ;
#51 = LINE ( 'NONE', #71, #120 ) ;
#52 =( CONVERSION_BASED_UNIT ( 'INCH', #229 ) LENGTH_UNIT ( ) NAMED_UNIT ( #230 ) );
#53 = PLANE ( 'NONE',  #6 ) ;
#54 = ADVANCED_FACE ( 'NONE', ( #94 ), #19, .F. ) ;
#55 = CC_DESIGN_APPROVAL ( #65, ( #103 ) ) ;
#56 = LINE ( 'NONE', #36, #27 ) ;
#57 = AXIS2_PLACEMENT_3D ( 'NONE', #173, #200, #235 ) ;
#58 = CARTESIAN_POINT ( 'NONE',  ( 1.125000000000000000, 2.290089514405551281E-17, -0.1870000000000000551 ) ) ;
#59 = PERSON_AND_ORGANIZATION ( #9, #184 ) ;
#60 = APPROVAL_DATE_TIME ( #102, #96 ) ;
#61 = CC_DESIGN_DATE_AND_TIME_ASSIGNMENT ( #80, #98, ( #97 ) ) ;
#62 = PERSON_AND_ORGANIZATION ( #9, #184 ) ;
#63 = ORIENTED_EDGE ( 'NONE', *, *, #215, .F. ) ;
#64 = EDGE_LOOP ( 'NONE', ( #8, #82, #158, #47 ) ) ;
#65 = APPROVAL ( #155, 'UNSPECIFIED' ) ;
#66 = EDGE_LOOP ( 'NONE', ( #86, #217, #63, #160 ) ) ;
#67 = DESIGN_CONTEXT ( 'detailed design', #144, 'design' ) ;
#68 = AXIS2_PLACEMENT_3D ( 'NONE', #113, #228, #231 ) ;
#69 = ORIENTED_EDGE ( 'NONE', *, *, #147, .T. ) ;
#70 = DIRECTION ( 'NONE',  ( 0.000000000000000000, 0.000000000000000000, -1.000000000000000000 ) ) ;
#71 = CARTESIAN_POINT ( 'NONE',  ( 1.125000000000000000, 0.000000000000000000, 0.09800000000000000377 ) ) ;
#72 = DIRECTION ( 'NONE',  ( -1.000000000000000000, -0.000000000000000000, -0.000000000000000000 ) ) ;
#73 = APPLICATION_CONTEXT ( 'configuration controlled 3d designs of mechanical parts and assemblies' ) ;
#74 = LINE ( 'NONE', #58, #212 ) ;
#75 = CARTESIAN_POINT ( 'NONE',  ( 1.125000000000000000, 0.000000000000000000, 0.000000000000000000 ) ) ;
#76 = AXIS2_PLACEMENT_3D ( 'NONE', #234, #213, #168 ) ;
#77 = APPROVAL_PERSON_ORGANIZATION ( #62, #65, #156 ) ;
#78 = APPROVAL_ROLE ( '' ) ;
#79 = PERSON_AND_ORGANIZATION ( #9, #184 ) ;
#80 = DATE_AND_TIME ( #177, #218 ) ;
#81 = APPLICATION_PROTOCOL_DEFINITION ( 'international standard', 'config_control_design', 1994, #73 ) ;
#82 = ORIENTED_EDGE ( 'NONE', *, *, #171, .T. ) ;
#83 = ORIENTED_EDGE ( 'NONE', *, *, #37, .T. ) ;
#84 = AXIS2_PLACEMENT_3D ( 'NONE', #17, #146, #133 ) ;
#85 = EDGE_CURVE ( 'NONE', #112, #5, #175, .T. ) ;
#86 = ORIENTED_EDGE ( 'NONE', *, *, #186, .T. ) ;
#87 = PLANE ( 'NONE',  #170 ) ;
#88 = CARTESIAN_POINT ( 'NONE',  ( 1.125000000000000000, 2.290089514405551281E-17, -0.1870000000000000551 ) ) ;
#89 = LOCAL_TIME ( 15, 24, 10.00000000000000000, #238 ) ;
#90 = VERTEX_POINT ( 'NONE', #248 ) ;
#91 = ADVANCED_BREP_SHAPE_REPRESENTATION ( 'WCP-0310', ( #193, #57 ), #223 ) ;
#92 = CARTESIAN_POINT ( 'NONE',  ( 1.125000000000000000, 0.000000000000000000, 0.000000000000000000 ) ) ;
#93 = CARTESIAN_POINT ( 'NONE',  ( 1.125000000000000000, 0.000000000000000000, 0.000000000000000000 ) ) ;
#94 = FACE_OUTER_BOUND ( 'NONE', #64, .T. ) ;
#95 = CARTESIAN_POINT ( 'NONE',  ( 1.125000000000000000, 0.000000000000000000, 0.09800000000000000377 ) ) ;
#96 = APPROVAL ( #154, 'UNSPECIFIED' ) ;
#97 = SECURITY_CLASSIFICATION ( '', '', #124 ) ;
#98 = DATE_TIME_ROLE ( 'classification_date' ) ;
#99 = PERSON_AND_ORGANIZATION_ROLE ( 'creator' ) ;
#100 = PERSON_AND_ORGANIZATION ( #9, #184 ) ;
#101 = ORIENTED_EDGE ( 'NONE', *, *, #32, .T. ) ;
#102 = DATE_AND_TIME ( #41, #240 ) ;
#103 = PRODUCT_DEFINITION ( 'UNKNOWN', '', #13, #67 ) ;
#104 = ORIENTED_EDGE ( 'NONE', *, *, #85, .F. ) ;
#105 = AXIS2_PLACEMENT_3D ( 'NONE', #252, #189, #15 ) ;
#106 = DATE_AND_TIME ( #216, #207 ) ;
#107 = CC_DESIGN_PERSON_AND_ORGANIZATION_ASSIGNMENT ( #197, #23, ( #110 ) ) ;
#108 = VERTEX_POINT ( 'NONE', #95 ) ;
#109 = FACE_OUTER_BOUND ( 'NONE', #4, .T. ) ;
#110 = PRODUCT ( 'WCP-0310', 'WCP-0310', '', ( #1 ) ) ;
#111 = CYLINDRICAL_SURFACE ( 'NONE', #16, 0.1870000000000000551 ) ;
#112 = VERTEX_POINT ( 'NONE', #214 ) ;
#113 = CARTESIAN_POINT ( 'NONE',  ( 1.125000000000000000, 0.000000000000000000, 0.000000000000000000 ) ) ;
#114 = CARTESIAN_POINT ( 'NONE',  ( 1.125000000000000000, 0.000000000000000000, 0.1870000000000000551 ) ) ;
#115 = CLOSED_SHELL ( 'NONE', ( #48, #22, #179, #11, #40, #54 ) ) ;
#116 = DIRECTION ( 'NONE',  ( 1.000000000000000000, 0.000000000000000000, 0.000000000000000000 ) ) ;
#117 = DIRECTION ( 'NONE',  ( 1.000000000000000000, 0.000000000000000000, 0.000000000000000000 ) ) ;
#118 = DIRECTION ( 'NONE',  ( 0.000000000000000000, 0.000000000000000000, -1.000000000000000000 ) ) ;
#119 = DATE_AND_TIME ( #202, #89 ) ;
#120 = VECTOR ( 'NONE', #72, 39.37007874015748143 ) ;
#121 = EDGE_LOOP ( 'NONE', ( #245, #69 ) ) ;
#122 = CC_DESIGN_PERSON_AND_ORGANIZATION_ASSIGNMENT ( #79, #99, ( #103 ) ) ;
#123 = PERSON_AND_ORGANIZATION ( #9, #184 ) ;
#124 = SECURITY_CLASSIFICATION_LEVEL ( 'unclassified' ) ;
#125 = CC_DESIGN_APPROVAL ( #96, ( #97 ) ) ;
#126 = EDGE_LOOP ( 'NONE', ( #43, #206, #7, #199 ) ) ;
#127 = CC_DESIGN_DATE_AND_TIME_ASSIGNMENT ( #106, #38, ( #103 ) ) ;
#128 = ORIENTED_EDGE ( 'NONE', *, *, #186, .F. ) ;
#129 = DIRECTION ( 'NONE',  ( 1.000000000000000000, 0.000000000000000000, 0.000000000000000000 ) ) ;
#130 = EDGE_CURVE ( 'NONE', #31, #90, #56, .T. ) ;
#131 = LOCAL_TIME ( 15, 24, 10.00000000000000000, #237 ) ;
#132 = CARTESIAN_POINT ( 'NONE',  ( 1.125000000000000000, 0.000000000000000000, 0.000000000000000000 ) ) ;
#133 = DIRECTION ( 'NONE',  ( 0.000000000000000000, 0.000000000000000000, -1.000000000000000000 ) ) ;
#134 = CIRCLE ( 'NONE', #246, 0.09800000000000000377 ) ;
#135 = DIRECTION ( 'NONE',  ( 1.000000000000000000, 0.000000000000000000, 0.000000000000000000 ) ) ;
#136 = FACE_BOUND ( 'NONE', #203, .T. ) ;
#137 = COORDINATED_UNIVERSAL_TIME_OFFSET ( 8, 0, .BEHIND. ) ;
#138 = EDGE_CURVE ( 'NONE', #108, #180, #51, .T. ) ;
#139 = APPROVAL_STATUS ( 'not_yet_approved' ) ;
#140 = APPROVAL_ROLE ( '' ) ;
#141 = CC_DESIGN_APPROVAL ( #241, ( #13 ) ) ;
#142 = EDGE_LOOP ( 'NONE', ( #239, #104 ) ) ;
#143 = CIRCLE ( 'NONE', #30, 0.09800000000000000377 ) ;
#144 = APPLICATION_CONTEXT ( 'configuration controlled 3d designs of mechanical parts and assemblies' ) ;
#145 = ORIENTED_EDGE ( 'NONE', *, *, #165, .F. ) ;
#146 = DIRECTION ( 'NONE',  ( 1.000000000000000000, 0.000000000000000000, 0.000000000000000000 ) ) ;
#147 = EDGE_CURVE ( 'NONE', #46, #176, #152, .T. ) ;
#148 = AXIS2_PLACEMENT_3D ( 'NONE', #132, #117, #191 ) ;
#149 = DIRECTION ( 'NONE',  ( 0.000000000000000000, 0.000000000000000000, -1.000000000000000000 ) ) ;
#150 = CARTESIAN_POINT ( 'NONE',  ( -1.125000000000000000, 0.000000000000000000, 0.000000000000000000 ) ) ;
#151 = FACE_OUTER_BOUND ( 'NONE', #121, .T. ) ;
#152 = CIRCLE ( 'NONE', #68, 0.1870000000000000551 ) ;
#153 =( NAMED_UNIT ( * ) PLANE_ANGLE_UNIT ( ) SI_UNIT ( $, .RADIAN. ) );
#154 = APPROVAL_STATUS ( 'not_yet_approved' ) ;
#155 = APPROVAL_STATUS ( 'not_yet_approved' ) ;
#156 = APPROVAL_ROLE ( '' ) ;
#157 = PERSON_AND_ORGANIZATION ( #9, #184 ) ;
#158 = ORIENTED_EDGE ( 'NONE', *, *, #138, .T. ) ;
#159 = CYLINDRICAL_SURFACE ( 'NONE', #226, 0.1870000000000000551 ) ;
#160 = ORIENTED_EDGE ( 'NONE', *, *, #138, .F. ) ;
#161 = CARTESIAN_POINT ( 'NONE',  ( -1.125000000000000000, 0.000000000000000000, 0.000000000000000000 ) ) ;
#162 = EDGE_CURVE ( 'NONE', #5, #112, #44, .T. ) ;
#163 = FACE_OUTER_BOUND ( 'NONE', #66, .T. ) ;
#164 = CARTESIAN_POINT ( 'NONE',  ( 1.125000000000000000, 0.000000000000000000, 0.1870000000000000551 ) ) ;
#165 = EDGE_CURVE ( 'NONE', #46, #112, #74, .T. ) ;
#166 = DIRECTION ( 'NONE',  ( 1.000000000000000000, 0.000000000000000000, 0.000000000000000000 ) ) ;
#167 = APPROVAL_PERSON_ORGANIZATION ( #100, #241, #78 ) ;
#168 = DIRECTION ( 'NONE',  ( 0.000000000000000000, 0.000000000000000000, 1.000000000000000000 ) ) ;
#169 =( LENGTH_UNIT ( ) NAMED_UNIT ( * ) SI_UNIT ( $, .METRE. ) );
#170 = AXIS2_PLACEMENT_3D ( 'NONE', #161, #243, #242 ) ;
#171 = EDGE_CURVE ( 'NONE', #31, #108, #143, .T. ) ;
#172 = APPROVAL_DATE_TIME ( #119, #241 ) ;
#173 = CARTESIAN_POINT ( 'NONE',  ( 0.000000000000000000, 0.000000000000000000, 0.000000000000000000 ) ) ;
#174 = SHAPE_DEFINITION_REPRESENTATION ( #18, #91 ) ;
#175 = CIRCLE ( 'NONE', #84, 0.1870000000000000551 ) ;
#176 = VERTEX_POINT ( 'NONE', #114 ) ;
#177 = CALENDAR_DATE ( 2021, 16, 4 ) ;
#178 = EDGE_LOOP ( 'NONE', ( #227, #83 ) ) ;
#179 = ADVANCED_FACE ( 'NONE', ( #151, #136 ), #53, .T. ) ;
#180 = VERTEX_POINT ( 'NONE', #33 ) ;
#181 = AXIS2_PLACEMENT_3D ( 'NONE', #150, #166, #149 ) ;
#182 = PRODUCT_RELATED_PRODUCT_CATEGORY ( 'detail', '', ( #110 ) ) ;
#183 = CARTESIAN_POINT ( 'NONE',  ( 1.125000000000000000, 0.000000000000000000, 0.000000000000000000 ) ) ;
#184 = ORGANIZATION ( 'UNSPECIFIED', 'UNSPECIFIED', '' ) ;
#185 = DIRECTION ( 'NONE',  ( 0.000000000000000000, 0.000000000000000000, 1.000000000000000000 ) ) ;
#186 = EDGE_CURVE ( 'NONE', #108, #31, #134, .T. ) ;
#187 = APPROVAL_PERSON_ORGANIZATION ( #219, #96, #140 ) ;
#188 = FACE_BOUND ( 'NONE', #178, .T. ) ;
#189 = DIRECTION ( 'NONE',  ( 1.000000000000000000, 0.000000000000000000, 0.000000000000000000 ) ) ;
#190 = DIRECTION ( 'NONE',  ( 0.000000000000000000, 0.000000000000000000, -1.000000000000000000 ) ) ;
#191 = DIRECTION ( 'NONE',  ( 0.000000000000000000, 0.000000000000000000, -1.000000000000000000 ) ) ;
#192 = UNCERTAINTY_MEASURE_WITH_UNIT (LENGTH_MEASURE( 1.000000000000000082E-05 ), #52, 'distance_accuracy_value', 'NONE');
#193 = MANIFOLD_SOLID_BREP ( 'Boss-Extrude1', #115 ) ;
#194 = DIRECTION ( 'NONE',  ( -1.000000000000000000, -0.000000000000000000, -0.000000000000000000 ) ) ;
#195 = CC_DESIGN_PERSON_AND_ORGANIZATION_ASSIGNMENT ( #157, #220, ( #97 ) ) ;
#196 = AXIS2_PLACEMENT_3D ( 'NONE', #28, #129, #70 ) ;
#197 = PERSON_AND_ORGANIZATION ( #9, #184 ) ;
#198 = PERSON_AND_ORGANIZATION_ROLE ( 'design_supplier' ) ;
#199 = ORIENTED_EDGE ( 'NONE', *, *, #32, .F. ) ;
#200 = DIRECTION ( 'NONE',  ( 0.000000000000000000, 0.000000000000000000, 1.000000000000000000 ) ) ;
#201 = ORIENTED_EDGE ( 'NONE', *, *, #162, .T. ) ;
#202 = CALENDAR_DATE ( 2021, 16, 4 ) ;
#203 = EDGE_LOOP ( 'NONE', ( #128, #42 ) ) ;
#204 = CARTESIAN_POINT ( 'NONE',  ( 1.125000000000000000, 1.200153863164406105E-17, -0.09800000000000000377 ) ) ;
#205 = CARTESIAN_POINT ( 'NONE',  ( 1.125000000000000000, 0.000000000000000000, 0.000000000000000000 ) ) ;
#206 = ORIENTED_EDGE ( 'NONE', *, *, #165, .T. ) ;
#207 = LOCAL_TIME ( 15, 24, 10.00000000000000000, #137 ) ;
#208 = DIRECTION ( 'NONE',  ( 1.000000000000000000, 0.000000000000000000, 0.000000000000000000 ) ) ;
#209 = DIRECTION ( 'NONE',  ( 0.000000000000000000, 0.000000000000000000, -1.000000000000000000 ) ) ;
#210 = EDGE_CURVE ( 'NONE', #176, #46, #24, .T. ) ;
#211 = DIRECTION ( 'NONE',  ( 0.000000000000000000, 0.000000000000000000, 1.000000000000000000 ) ) ;
#212 = VECTOR ( 'NONE', #34, 39.37007874015748143 ) ;
#213 = DIRECTION ( 'NONE',  ( -1.000000000000000000, -0.000000000000000000, -0.000000000000000000 ) ) ;
#214 = CARTESIAN_POINT ( 'NONE',  ( -1.125000000000000000, 2.290089514405551281E-17, -0.1870000000000000551 ) ) ;
#215 = EDGE_CURVE ( 'NONE', #180, #90, #39, .T. ) ;
#216 = CALENDAR_DATE ( 2021, 16, 4 ) ;
#217 = ORIENTED_EDGE ( 'NONE', *, *, #130, .T. ) ;
#218 = LOCAL_TIME ( 15, 24, 10.00000000000000000, #222 ) ;
#219 = PERSON_AND_ORGANIZATION ( #9, #184 ) ;
#220 = PERSON_AND_ORGANIZATION_ROLE ( 'classification_officer' ) ;
#221 = CC_DESIGN_SECURITY_CLASSIFICATION ( #97, ( #13 ) ) ;
#222 = COORDINATED_UNIVERSAL_TIME_OFFSET ( 8, 0, .BEHIND. ) ;
#223 =( GEOMETRIC_REPRESENTATION_CONTEXT ( 3 ) GLOBAL_UNCERTAINTY_ASSIGNED_CONTEXT ( ( #192 ) ) GLOBAL_UNIT_ASSIGNED_CONTEXT ( ( #52, #153, #251 ) ) REPRESENTATION_CONTEXT ( 'NONE', 'WORKASPACE' ) );
#224 = DIRECTION ( 'NONE',  ( -1.000000000000000000, -0.000000000000000000, -0.000000000000000000 ) ) ;
#225 = CARTESIAN_POINT ( 'NONE',  ( -1.125000000000000000, 0.000000000000000000, 0.1870000000000000551 ) ) ;
#226 = AXIS2_PLACEMENT_3D ( 'NONE', #183, #14, #10 ) ;
#227 = ORIENTED_EDGE ( 'NONE', *, *, #215, .T. ) ;
#228 = DIRECTION ( 'NONE',  ( 1.000000000000000000, 0.000000000000000000, 0.000000000000000000 ) ) ;
#229 = LENGTH_MEASURE_WITH_UNIT ( LENGTH_MEASURE( 0.02539999999999999897 ), #169 );
#230 = DIMENSIONAL_EXPONENTS ( 1.000000000000000000, 0.000000000000000000, 0.000000000000000000, 0.000000000000000000, 0.000000000000000000, 0.000000000000000000, 0.000000000000000000 ) ;
#231 = DIRECTION ( 'NONE',  ( 0.000000000000000000, 0.000000000000000000, -1.000000000000000000 ) ) ;
#232 = CARTESIAN_POINT ( 'NONE',  ( 1.125000000000000000, 0.000000000000000000, 0.000000000000000000 ) ) ;
#233 = CIRCLE ( 'NONE', #196, 0.09800000000000000377 ) ;
#234 = CARTESIAN_POINT ( 'NONE',  ( 1.125000000000000000, 0.000000000000000000, 0.000000000000000000 ) ) ;
#235 = DIRECTION ( 'NONE',  ( 1.000000000000000000, 0.000000000000000000, 0.000000000000000000 ) ) ;
#236 = COORDINATED_UNIVERSAL_TIME_OFFSET ( 8, 0, .BEHIND. ) ;
#237 = COORDINATED_UNIVERSAL_TIME_OFFSET ( 8, 0, .BEHIND. ) ;
#238 = COORDINATED_UNIVERSAL_TIME_OFFSET ( 8, 0, .BEHIND. ) ;
#239 = ORIENTED_EDGE ( 'NONE', *, *, #162, .F. ) ;
#240 = LOCAL_TIME ( 15, 24, 10.00000000000000000, #236 ) ;
#241 = APPROVAL ( #139, 'UNSPECIFIED' ) ;
#242 = DIRECTION ( 'NONE',  ( 0.000000000000000000, 0.000000000000000000, -1.000000000000000000 ) ) ;
#243 = DIRECTION ( 'NONE',  ( 1.000000000000000000, 0.000000000000000000, 0.000000000000000000 ) ) ;
#244 = LINE ( 'NONE', #164, #50 ) ;
#245 = ORIENTED_EDGE ( 'NONE', *, *, #210, .T. ) ;
#246 = AXIS2_PLACEMENT_3D ( 'NONE', #93, #208, #190 ) ;
#247 = DIRECTION ( 'NONE',  ( -1.000000000000000000, -0.000000000000000000, -0.000000000000000000 ) ) ;
#248 = CARTESIAN_POINT ( 'NONE',  ( -1.125000000000000000, 1.200153863164406105E-17, -0.09800000000000000377 ) ) ;
#249 = CYLINDRICAL_SURFACE ( 'NONE', #76, 0.09800000000000000377 ) ;
#250 = CC_DESIGN_PERSON_AND_ORGANIZATION_ASSIGNMENT ( #59, #25, ( #13 ) ) ;
#251 =( NAMED_UNIT ( * ) SI_UNIT ( $, .STERADIAN. ) SOLID_ANGLE_UNIT ( ) );
#252 = CARTESIAN_POINT ( 'NONE',  ( -1.125000000000000000, 0.000000000000000000, 0.000000000000000000 ) ) ;
ENDSEC;
END-ISO-10303-21;
