ISO-10303-21;
HEADER;
FILE_DESCRIPTION (( 'STEP AP203' ),
    '1' );
FILE_NAME ('WCP-0309.STEP',
    '2021-04-16T22:24:22',
    ( '' ),
    ( '' ),
    'SwSTEP 2.0',
    'SolidWorks 2020',
    '' );
FILE_SCHEMA (( 'CONFIG_CONTROL_DESIGN' ));
ENDSEC;

DATA;
#1 = DIRECTION ( 'NONE',  ( 0.000000000000000000, 0.000000000000000000, -1.000000000000000000 ) ) ;
#2 = EDGE_LOOP ( 'NONE', ( #74, #150 ) ) ;
#3 = DIRECTION ( 'NONE',  ( 0.000000000000000000, 0.000000000000000000, -1.000000000000000000 ) ) ;
#4 = PRODUCT_DEFINITION_FORMATION_WITH_SPECIFIED_SOURCE ( 'ANY', '', #211, .NOT_KNOWN. ) ;
#5 = DIRECTION ( 'NONE',  ( 0.000000000000000000, 0.000000000000000000, -1.000000000000000000 ) ) ;
#6 = AXIS2_PLACEMENT_3D ( 'NONE', #103, #178, #85 ) ;
#7 = CARTESIAN_POINT ( 'NONE',  ( 0.1875000000000000278, 0.000000000000000000, 0.1870000000000000551 ) ) ;
#8 = DATE_AND_TIME ( #223, #16 ) ;
#9 = VERTEX_POINT ( 'NONE', #139 ) ;
#10 = PERSON_AND_ORGANIZATION_ROLE ( 'design_supplier' ) ;
#11 = PERSON_AND_ORGANIZATION_ROLE ( 'classification_officer' ) ;
#12 = CC_DESIGN_PERSON_AND_ORGANIZATION_ASSIGNMENT ( #109, #112, ( #4 ) ) ;
#13 = CARTESIAN_POINT ( 'NONE',  ( -0.1875000000000000278, 0.000000000000000000, 0.1870000000000000551 ) ) ;
#14 = VERTEX_POINT ( 'NONE', #175 ) ;
#15 = DIRECTION ( 'NONE',  ( 0.000000000000000000, 0.000000000000000000, -1.000000000000000000 ) ) ;
#16 = LOCAL_TIME ( 15, 24, 22.00000000000000000, #191 ) ;
#17 = DIRECTION ( 'NONE',  ( -1.000000000000000000, -0.000000000000000000, -0.000000000000000000 ) ) ;
#18 = EDGE_CURVE ( 'NONE', #207, #186, #68, .T. ) ;
#19 = ORIENTED_EDGE ( 'NONE', *, *, #42, .F. ) ;
#20 = APPROVAL_STATUS ( 'not_yet_approved' ) ;
#21 = CC_DESIGN_PERSON_AND_ORGANIZATION_ASSIGNMENT ( #180, #86, ( #211 ) ) ;
#22 = CARTESIAN_POINT ( 'NONE',  ( -0.1875000000000000278, 0.000000000000000000, 0.09800000000000000377 ) ) ;
#23 = AXIS2_PLACEMENT_3D ( 'NONE', #50, #219, #218 ) ;
#24 = MANIFOLD_SOLID_BREP ( 'Boss-Extrude1', #88 ) ;
#25 = LENGTH_MEASURE_WITH_UNIT ( LENGTH_MEASURE( 0.02539999999999999897 ), #28 );
#26 = LINE ( 'NONE', #200, #205 ) ;
#27 = ADVANCED_FACE ( 'NONE', ( #235 ), #155, .F. ) ;
#28 =( LENGTH_UNIT ( ) NAMED_UNIT ( * ) SI_UNIT ( $, .METRE. ) );
#29 = CALENDAR_DATE ( 2021, 16, 4 ) ;
#30 = APPROVAL_ROLE ( '' ) ;
#31 = EDGE_CURVE ( 'NONE', #9, #32, #52, .T. ) ;
#32 = VERTEX_POINT ( 'NONE', #134 ) ;
#33 = AXIS2_PLACEMENT_3D ( 'NONE', #67, #179, #3 ) ;
#34 = DATE_TIME_ROLE ( 'classification_date' ) ;
#35 = PERSON_AND_ORGANIZATION ( #165, #187 ) ;
#36 = ORIENTED_EDGE ( 'NONE', *, *, #141, .F. ) ;
#37 = DIRECTION ( 'NONE',  ( 0.000000000000000000, 0.000000000000000000, -1.000000000000000000 ) ) ;
#38 = SECURITY_CLASSIFICATION ( '', '', #226 ) ;
#39 = DIRECTION ( 'NONE',  ( 0.000000000000000000, 0.000000000000000000, 1.000000000000000000 ) ) ;
#40 = CARTESIAN_POINT ( 'NONE',  ( 0.1875000000000000278, 0.000000000000000000, 0.000000000000000000 ) ) ;
#41 = DIRECTION ( 'NONE',  ( 0.000000000000000000, 0.000000000000000000, -1.000000000000000000 ) ) ;
#42 = EDGE_CURVE ( 'NONE', #186, #207, #114, .T. ) ;
#43 = CC_DESIGN_APPROVAL ( #234, ( #4 ) ) ;
#44 = ORIENTED_EDGE ( 'NONE', *, *, #46, .F. ) ;
#45 = APPLICATION_PROTOCOL_DEFINITION ( 'international standard', 'config_control_design', 1994, #170 ) ;
#46 = EDGE_CURVE ( 'NONE', #72, #207, #120, .T. ) ;
#47 = FACE_OUTER_BOUND ( 'NONE', #93, .T. ) ;
#48 = LINE ( 'NONE', #51, #248 ) ;
#49 = CIRCLE ( 'NONE', #151, 0.1870000000000000551 ) ;
#50 = CARTESIAN_POINT ( 'NONE',  ( 0.1875000000000000278, 0.000000000000000000, 0.000000000000000000 ) ) ;
#51 = CARTESIAN_POINT ( 'NONE',  ( 0.1875000000000000278, 2.290089514405550357E-17, -0.1870000000000000551 ) ) ;
#52 = CIRCLE ( 'NONE', #110, 0.1870000000000000551 ) ;
#53 = COORDINATED_UNIVERSAL_TIME_OFFSET ( 8, 0, .BEHIND. ) ;
#54 = ORIENTED_EDGE ( 'NONE', *, *, #18, .F. ) ;
#55 = DATE_AND_TIME ( #247, #182 ) ;
#56 = VERTEX_POINT ( 'NONE', #13 ) ;
#57 = AXIS2_PLACEMENT_3D ( 'NONE', #64, #95, #194 ) ;
#58 = COORDINATED_UNIVERSAL_TIME_OFFSET ( 8, 0, .BEHIND. ) ;
#59 = CARTESIAN_POINT ( 'NONE',  ( 0.1875000000000000278, 0.000000000000000000, 0.000000000000000000 ) ) ;
#60 =( GEOMETRIC_REPRESENTATION_CONTEXT ( 3 ) GLOBAL_UNCERTAINTY_ASSIGNED_CONTEXT ( ( #208 ) ) GLOBAL_UNIT_ASSIGNED_CONTEXT ( ( #121, #199, #124 ) ) REPRESENTATION_CONTEXT ( 'NONE', 'WORKASPACE' ) );
#61 = DIRECTION ( 'NONE',  ( 1.000000000000000000, 0.000000000000000000, 0.000000000000000000 ) ) ;
#62 = EDGE_CURVE ( 'NONE', #56, #204, #241, .T. ) ;
#63 = PLANE ( 'NONE',  #106 ) ;
#64 = CARTESIAN_POINT ( 'NONE',  ( -0.1875000000000000278, 0.000000000000000000, 0.000000000000000000 ) ) ;
#65 = EDGE_LOOP ( 'NONE', ( #250, #147 ) ) ;
#66 = LINE ( 'NONE', #7, #79 ) ;
#67 = CARTESIAN_POINT ( 'NONE',  ( 0.1875000000000000278, 0.000000000000000000, 0.000000000000000000 ) ) ;
#68 = CIRCLE ( 'NONE', #237, 0.09800000000000000377 ) ;
#69 = DIRECTION ( 'NONE',  ( 0.000000000000000000, 0.000000000000000000, 1.000000000000000000 ) ) ;
#70 = ADVANCED_FACE ( 'NONE', ( #169 ), #249, .T. ) ;
#71 = DATE_AND_TIME ( #92, #215 ) ;
#72 = VERTEX_POINT ( 'NONE', #136 ) ;
#73 = APPROVAL_STATUS ( 'not_yet_approved' ) ;
#74 = ORIENTED_EDGE ( 'NONE', *, *, #123, .F. ) ;
#75 = SHAPE_DEFINITION_REPRESENTATION ( #231, #217 ) ;
#76 = APPROVAL_PERSON_ORGANIZATION ( #90, #126, #164 ) ;
#77 = DIRECTION ( 'NONE',  ( 1.000000000000000000, 0.000000000000000000, 0.000000000000000000 ) ) ;
#78 = DIRECTION ( 'NONE',  ( 1.000000000000000000, 0.000000000000000000, 0.000000000000000000 ) ) ;
#79 = VECTOR ( 'NONE', #87, 39.37007874015748143 ) ;
#80 = EDGE_LOOP ( 'NONE', ( #131, #197, #167, #202 ) ) ;
#81 = EDGE_LOOP ( 'NONE', ( #159, #193 ) ) ;
#82 = EDGE_LOOP ( 'NONE', ( #224, #206, #96, #108 ) ) ;
#83 = CC_DESIGN_SECURITY_CLASSIFICATION ( #38, ( #4 ) ) ;
#84 = DIRECTION ( 'NONE',  ( 1.000000000000000000, 0.000000000000000000, 0.000000000000000000 ) ) ;
#85 = DIRECTION ( 'NONE',  ( 0.000000000000000000, 0.000000000000000000, -1.000000000000000000 ) ) ;
#86 = PERSON_AND_ORGANIZATION_ROLE ( 'design_owner' ) ;
#87 = DIRECTION ( 'NONE',  ( -1.000000000000000000, -0.000000000000000000, -0.000000000000000000 ) ) ;
#88 = CLOSED_SHELL ( 'NONE', ( #27, #70, #97, #118, #216, #177 ) ) ;
#89 = EDGE_CURVE ( 'NONE', #72, #14, #163, .T. ) ;
#90 = PERSON_AND_ORGANIZATION ( #165, #187 ) ;
#91 = APPROVAL_PERSON_ORGANIZATION ( #198, #240, #201 ) ;
#92 = CALENDAR_DATE ( 2021, 16, 4 ) ;
#93 = EDGE_LOOP ( 'NONE', ( #44, #176, #228, #54 ) ) ;
#94 = AXIS2_PLACEMENT_3D ( 'NONE', #40, #232, #195 ) ;
#95 = DIRECTION ( 'NONE',  ( 1.000000000000000000, 0.000000000000000000, 0.000000000000000000 ) ) ;
#96 = ORIENTED_EDGE ( 'NONE', *, *, #141, .T. ) ;
#97 = ADVANCED_FACE ( 'NONE', ( #214, #154 ), #63, .T. ) ;
#98 = FACE_OUTER_BOUND ( 'NONE', #100, .T. ) ;
#99 = CARTESIAN_POINT ( 'NONE',  ( 0.1875000000000000278, 0.000000000000000000, 0.000000000000000000 ) ) ;
#100 = EDGE_LOOP ( 'NONE', ( #116, #36 ) ) ;
#101 = DIRECTION ( 'NONE',  ( 0.000000000000000000, 0.000000000000000000, 1.000000000000000000 ) ) ;
#102 = CC_DESIGN_APPROVAL ( #126, ( #38 ) ) ;
#103 = CARTESIAN_POINT ( 'NONE',  ( 0.1875000000000000278, 0.000000000000000000, 0.000000000000000000 ) ) ;
#104 = DIRECTION ( 'NONE',  ( -1.000000000000000000, -0.000000000000000000, -0.000000000000000000 ) ) ;
#105 = APPLICATION_PROTOCOL_DEFINITION ( 'international standard', 'config_control_design', 1994, #229 ) ;
#106 = AXIS2_PLACEMENT_3D ( 'NONE', #59, #132, #210 ) ;
#107 = PRODUCT_DEFINITION ( 'UNKNOWN', '', #4, #115 ) ;
#108 = ORIENTED_EDGE ( 'NONE', *, *, #174, .F. ) ;
#109 = PERSON_AND_ORGANIZATION ( #165, #187 ) ;
#110 = AXIS2_PLACEMENT_3D ( 'NONE', #212, #61, #1 ) ;
#111 = PERSON_AND_ORGANIZATION ( #165, #187 ) ;
#112 = PERSON_AND_ORGANIZATION_ROLE ( 'creator' ) ;
#113 = CARTESIAN_POINT ( 'NONE',  ( -0.1875000000000000278, 0.000000000000000000, 0.000000000000000000 ) ) ;
#114 = CIRCLE ( 'NONE', #146, 0.09800000000000000377 ) ;
#115 = DESIGN_CONTEXT ( 'detailed design', #170, 'design' ) ;
#116 = ORIENTED_EDGE ( 'NONE', *, *, #62, .F. ) ;
#117 = DIRECTION ( 'NONE',  ( 0.000000000000000000, 0.000000000000000000, -1.000000000000000000 ) ) ;
#118 = ADVANCED_FACE ( 'NONE', ( #98, #172 ), #252, .F. ) ;
#119 = AXIS2_PLACEMENT_3D ( 'NONE', #99, #77, #15 ) ;
#120 = LINE ( 'NONE', #192, #196 ) ;
#121 =( CONVERSION_BASED_UNIT ( 'INCH', #25 ) LENGTH_UNIT ( ) NAMED_UNIT ( #148 ) );
#122 = CYLINDRICAL_SURFACE ( 'NONE', #23, 0.1870000000000000551 ) ;
#123 = EDGE_CURVE ( 'NONE', #14, #72, #127, .T. ) ;
#124 =( NAMED_UNIT ( * ) SI_UNIT ( $, .STERADIAN. ) SOLID_ANGLE_UNIT ( ) );
#125 = CARTESIAN_POINT ( 'NONE',  ( -0.1875000000000000278, 1.200153863164405951E-17, -0.09800000000000000377 ) ) ;
#126 = APPROVAL ( #189, 'UNSPECIFIED' ) ;
#127 = CIRCLE ( 'NONE', #6, 0.09800000000000000377 ) ;
#128 = CALENDAR_DATE ( 2021, 16, 4 ) ;
#129 = EDGE_CURVE ( 'NONE', #32, #9, #138, .T. ) ;
#130 = AXIS2_PLACEMENT_3D ( 'NONE', #140, #104, #101 ) ;
#131 = ORIENTED_EDGE ( 'NONE', *, *, #190, .F. ) ;
#132 = DIRECTION ( 'NONE',  ( 1.000000000000000000, 0.000000000000000000, 0.000000000000000000 ) ) ;
#133 = AXIS2_PLACEMENT_3D ( 'NONE', #135, #213, #41 ) ;
#134 = CARTESIAN_POINT ( 'NONE',  ( 0.1875000000000000278, 0.000000000000000000, 0.1870000000000000551 ) ) ;
#135 = CARTESIAN_POINT ( 'NONE',  ( -0.1875000000000000278, 0.000000000000000000, 0.000000000000000000 ) ) ;
#136 = CARTESIAN_POINT ( 'NONE',  ( 0.1875000000000000278, 1.200153863164405951E-17, -0.09800000000000000377 ) ) ;
#137 = CC_DESIGN_PERSON_AND_ORGANIZATION_ASSIGNMENT ( #35, #10, ( #4 ) ) ;
#138 = CIRCLE ( 'NONE', #33, 0.1870000000000000551 ) ;
#139 = CARTESIAN_POINT ( 'NONE',  ( 0.1875000000000000278, 2.290089514405550357E-17, -0.1870000000000000551 ) ) ;
#140 = CARTESIAN_POINT ( 'NONE',  ( 0.1875000000000000278, 0.000000000000000000, 0.000000000000000000 ) ) ;
#141 = EDGE_CURVE ( 'NONE', #204, #56, #49, .T. ) ;
#142 = APPROVAL_PERSON_ORGANIZATION ( #245, #234, #30 ) ;
#143 = DIRECTION ( 'NONE',  ( 1.000000000000000000, 0.000000000000000000, 0.000000000000000000 ) ) ;
#144 = CC_DESIGN_PERSON_AND_ORGANIZATION_ASSIGNMENT ( #111, #203, ( #107 ) ) ;
#145 = APPROVAL_DATE_TIME ( #166, #240 ) ;
#146 = AXIS2_PLACEMENT_3D ( 'NONE', #113, #230, #117 ) ;
#147 = ORIENTED_EDGE ( 'NONE', *, *, #31, .T. ) ;
#148 = DIMENSIONAL_EXPONENTS ( 1.000000000000000000, 0.000000000000000000, 0.000000000000000000, 0.000000000000000000, 0.000000000000000000, 0.000000000000000000, 0.000000000000000000 ) ;
#149 = EDGE_CURVE ( 'NONE', #14, #186, #26, .T. ) ;
#150 = ORIENTED_EDGE ( 'NONE', *, *, #89, .F. ) ;
#151 = AXIS2_PLACEMENT_3D ( 'NONE', #221, #84, #5 ) ;
#152 = ORIENTED_EDGE ( 'NONE', *, *, #149, .F. ) ;
#153 = CC_DESIGN_DATE_AND_TIME_ASSIGNMENT ( #162, #184, ( #107 ) ) ;
#154 = FACE_BOUND ( 'NONE', #2, .T. ) ;
#155 = CYLINDRICAL_SURFACE ( 'NONE', #94, 0.09800000000000000377 ) ;
#156 = AXIS2_PLACEMENT_3D ( 'NONE', #233, #157, #39 ) ;
#157 = DIRECTION ( 'NONE',  ( -1.000000000000000000, -0.000000000000000000, -0.000000000000000000 ) ) ;
#158 = CARTESIAN_POINT ( 'NONE',  ( -0.1875000000000000278, 0.000000000000000000, 0.000000000000000000 ) ) ;
#159 = ORIENTED_EDGE ( 'NONE', *, *, #42, .T. ) ;
#160 = DIRECTION ( 'NONE',  ( -1.000000000000000000, -0.000000000000000000, -0.000000000000000000 ) ) ;
#161 = CC_DESIGN_APPROVAL ( #240, ( #107 ) ) ;
#162 = DATE_AND_TIME ( #29, #209 ) ;
#163 = CIRCLE ( 'NONE', #119, 0.09800000000000000377 ) ;
#164 = APPROVAL_ROLE ( '' ) ;
#165 = PERSON ( 'UNSPECIFIED', 'UNSPECIFIED', 'UNSPECIFIED', ('UNSPECIFIED'), ('UNSPECIFIED'), ('UNSPECIFIED') ) ;
#166 = DATE_AND_TIME ( #128, #251 ) ;
#167 = ORIENTED_EDGE ( 'NONE', *, *, #174, .T. ) ;
#168 = CC_DESIGN_PERSON_AND_ORGANIZATION_ASSIGNMENT ( #222, #11, ( #38 ) ) ;
#169 = FACE_OUTER_BOUND ( 'NONE', #82, .T. ) ;
#170 = APPLICATION_CONTEXT ( 'configuration controlled 3d designs of mechanical parts and assemblies' ) ;
#171 = EDGE_LOOP ( 'NONE', ( #225, #236, #19, #152 ) ) ;
#172 = FACE_BOUND ( 'NONE', #81, .T. ) ;
#173 = AXIS2_PLACEMENT_3D ( 'NONE', #242, #69, #143 ) ;
#174 = EDGE_CURVE ( 'NONE', #32, #56, #66, .T. ) ;
#175 = CARTESIAN_POINT ( 'NONE',  ( 0.1875000000000000278, 0.000000000000000000, 0.09800000000000000377 ) ) ;
#176 = ORIENTED_EDGE ( 'NONE', *, *, #89, .T. ) ;
#177 = ADVANCED_FACE ( 'NONE', ( #47 ), #220, .F. ) ;
#178 = DIRECTION ( 'NONE',  ( 1.000000000000000000, 0.000000000000000000, 0.000000000000000000 ) ) ;
#179 = DIRECTION ( 'NONE',  ( 1.000000000000000000, 0.000000000000000000, 0.000000000000000000 ) ) ;
#180 = PERSON_AND_ORGANIZATION ( #165, #187 ) ;
#181 = CC_DESIGN_DATE_AND_TIME_ASSIGNMENT ( #55, #34, ( #38 ) ) ;
#182 = LOCAL_TIME ( 15, 24, 22.00000000000000000, #244 ) ;
#183 = MECHANICAL_CONTEXT ( 'NONE', #229, 'mechanical' ) ;
#184 = DATE_TIME_ROLE ( 'creation_date' ) ;
#185 = APPROVAL_DATE_TIME ( #8, #234 ) ;
#186 = VERTEX_POINT ( 'NONE', #22 ) ;
#187 = ORGANIZATION ( 'UNSPECIFIED', 'UNSPECIFIED', '' ) ;
#188 = APPROVAL_DATE_TIME ( #71, #126 ) ;
#189 = APPROVAL_STATUS ( 'not_yet_approved' ) ;
#190 = EDGE_CURVE ( 'NONE', #9, #204, #48, .T. ) ;
#191 = COORDINATED_UNIVERSAL_TIME_OFFSET ( 8, 0, .BEHIND. ) ;
#192 = CARTESIAN_POINT ( 'NONE',  ( 0.1875000000000000278, 1.200153863164405951E-17, -0.09800000000000000377 ) ) ;
#193 = ORIENTED_EDGE ( 'NONE', *, *, #18, .T. ) ;
#194 = DIRECTION ( 'NONE',  ( 0.000000000000000000, 0.000000000000000000, -1.000000000000000000 ) ) ;
#195 = DIRECTION ( 'NONE',  ( 0.000000000000000000, 0.000000000000000000, 1.000000000000000000 ) ) ;
#196 = VECTOR ( 'NONE', #17, 39.37007874015748143 ) ;
#197 = ORIENTED_EDGE ( 'NONE', *, *, #129, .F. ) ;
#198 = PERSON_AND_ORGANIZATION ( #165, #187 ) ;
#199 =( NAMED_UNIT ( * ) PLANE_ANGLE_UNIT ( ) SI_UNIT ( $, .RADIAN. ) );
#200 = CARTESIAN_POINT ( 'NONE',  ( 0.1875000000000000278, 0.000000000000000000, 0.09800000000000000377 ) ) ;
#201 = APPROVAL_ROLE ( '' ) ;
#202 = ORIENTED_EDGE ( 'NONE', *, *, #62, .T. ) ;
#203 = PERSON_AND_ORGANIZATION_ROLE ( 'creator' ) ;
#204 = VERTEX_POINT ( 'NONE', #238 ) ;
#205 = VECTOR ( 'NONE', #239, 39.37007874015748143 ) ;
#206 = ORIENTED_EDGE ( 'NONE', *, *, #190, .T. ) ;
#207 = VERTEX_POINT ( 'NONE', #125 ) ;
#208 = UNCERTAINTY_MEASURE_WITH_UNIT (LENGTH_MEASURE( 1.000000000000000082E-05 ), #121, 'distance_accuracy_value', 'NONE');
#209 = LOCAL_TIME ( 15, 24, 22.00000000000000000, #246 ) ;
#210 = DIRECTION ( 'NONE',  ( 0.000000000000000000, 0.000000000000000000, -1.000000000000000000 ) ) ;
#211 = PRODUCT ( 'WCP-0309', 'WCP-0309', '', ( #183 ) ) ;
#212 = CARTESIAN_POINT ( 'NONE',  ( 0.1875000000000000278, 0.000000000000000000, 0.000000000000000000 ) ) ;
#213 = DIRECTION ( 'NONE',  ( 1.000000000000000000, 0.000000000000000000, 0.000000000000000000 ) ) ;
#214 = FACE_OUTER_BOUND ( 'NONE', #65, .T. ) ;
#215 = LOCAL_TIME ( 15, 24, 22.00000000000000000, #58 ) ;
#216 = ADVANCED_FACE ( 'NONE', ( #243 ), #122, .T. ) ;
#217 = ADVANCED_BREP_SHAPE_REPRESENTATION ( 'WCP-0309', ( #24, #173 ), #60 ) ;
#218 = DIRECTION ( 'NONE',  ( 0.000000000000000000, 0.000000000000000000, 1.000000000000000000 ) ) ;
#219 = DIRECTION ( 'NONE',  ( -1.000000000000000000, -0.000000000000000000, -0.000000000000000000 ) ) ;
#220 = CYLINDRICAL_SURFACE ( 'NONE', #130, 0.09800000000000000377 ) ;
#221 = CARTESIAN_POINT ( 'NONE',  ( -0.1875000000000000278, 0.000000000000000000, 0.000000000000000000 ) ) ;
#222 = PERSON_AND_ORGANIZATION ( #165, #187 ) ;
#223 = CALENDAR_DATE ( 2021, 16, 4 ) ;
#224 = ORIENTED_EDGE ( 'NONE', *, *, #31, .F. ) ;
#225 = ORIENTED_EDGE ( 'NONE', *, *, #123, .T. ) ;
#226 = SECURITY_CLASSIFICATION_LEVEL ( 'unclassified' ) ;
#227 = PRODUCT_RELATED_PRODUCT_CATEGORY ( 'detail', '', ( #211 ) ) ;
#228 = ORIENTED_EDGE ( 'NONE', *, *, #149, .T. ) ;
#229 = APPLICATION_CONTEXT ( 'configuration controlled 3d designs of mechanical parts and assemblies' ) ;
#230 = DIRECTION ( 'NONE',  ( 1.000000000000000000, 0.000000000000000000, 0.000000000000000000 ) ) ;
#231 = PRODUCT_DEFINITION_SHAPE ( 'NONE', 'NONE',  #107 ) ;
#232 = DIRECTION ( 'NONE',  ( -1.000000000000000000, -0.000000000000000000, -0.000000000000000000 ) ) ;
#233 = CARTESIAN_POINT ( 'NONE',  ( 0.1875000000000000278, 0.000000000000000000, 0.000000000000000000 ) ) ;
#234 = APPROVAL ( #73, 'UNSPECIFIED' ) ;
#235 = FACE_OUTER_BOUND ( 'NONE', #171, .T. ) ;
#236 = ORIENTED_EDGE ( 'NONE', *, *, #46, .T. ) ;
#237 = AXIS2_PLACEMENT_3D ( 'NONE', #158, #78, #37 ) ;
#238 = CARTESIAN_POINT ( 'NONE',  ( -0.1875000000000000278, 2.290089514405550357E-17, -0.1870000000000000551 ) ) ;
#239 = DIRECTION ( 'NONE',  ( -1.000000000000000000, -0.000000000000000000, -0.000000000000000000 ) ) ;
#240 = APPROVAL ( #20, 'UNSPECIFIED' ) ;
#241 = CIRCLE ( 'NONE', #57, 0.1870000000000000551 ) ;
#242 = CARTESIAN_POINT ( 'NONE',  ( 0.000000000000000000, 0.000000000000000000, 0.000000000000000000 ) ) ;
#243 = FACE_OUTER_BOUND ( 'NONE', #80, .T. ) ;
#244 = COORDINATED_UNIVERSAL_TIME_OFFSET ( 8, 0, .BEHIND. ) ;
#245 = PERSON_AND_ORGANIZATION ( #165, #187 ) ;
#246 = COORDINATED_UNIVERSAL_TIME_OFFSET ( 8, 0, .BEHIND. ) ;
#247 = CALENDAR_DATE ( 2021, 16, 4 ) ;
#248 = VECTOR ( 'NONE', #160, 39.37007874015748143 ) ;
#249 = CYLINDRICAL_SURFACE ( 'NONE', #156, 0.1870000000000000551 ) ;
#250 = ORIENTED_EDGE ( 'NONE', *, *, #129, .T. ) ;
#251 = LOCAL_TIME ( 15, 24, 22.00000000000000000, #53 ) ;
#252 = PLANE ( 'NONE',  #133 ) ;
ENDSEC;
END-ISO-10303-21;
