ISO-10303-21;
HEADER;
FILE_DESCRIPTION (( 'STEP AP203' ),
    '1' );
FILE_NAME ('WCP-0308.STEP',
    '2021-04-16T22:24:41',
    ( '' ),
    ( '' ),
    'SwSTEP 2.0',
    'SolidWorks 2020',
    '' );
FILE_SCHEMA (( 'CONFIG_CONTROL_DESIGN' ));
ENDSEC;

DATA;
#1 = CARTESIAN_POINT ( 'NONE',  ( 0.1250000000000000000, 2.290089514405551281E-17, -0.1870000000000000551 ) ) ;
#2 = DIRECTION ( 'NONE',  ( 0.000000000000000000, 0.000000000000000000, -1.000000000000000000 ) ) ;
#3 = CC_DESIGN_PERSON_AND_ORGANIZATION_ASSIGNMENT ( #107, #67, ( #198 ) ) ;
#4 = CIRCLE ( 'NONE', #105, 0.1870000000000000551 ) ;
#5 = PERSON_AND_ORGANIZATION ( #49, #11 ) ;
#6 = EDGE_CURVE ( 'NONE', #41, #57, #55, .T. ) ;
#7 = DIRECTION ( 'NONE',  ( 0.000000000000000000, 0.000000000000000000, -1.000000000000000000 ) ) ;
#8 = CC_DESIGN_PERSON_AND_ORGANIZATION_ASSIGNMENT ( #12, #244, ( #129 ) ) ;
#9 = CALENDAR_DATE ( 2021, 16, 4 ) ;
#10 = ORIENTED_EDGE ( 'NONE', *, *, #82, .T. ) ;
#11 = ORGANIZATION ( 'UNSPECIFIED', 'UNSPECIFIED', '' ) ;
#12 = PERSON_AND_ORGANIZATION ( #49, #11 ) ;
#13 = VERTEX_POINT ( 'NONE', #230 ) ;
#14 = COORDINATED_UNIVERSAL_TIME_OFFSET ( 8, 0, .BEHIND. ) ;
#15 = ORIENTED_EDGE ( 'NONE', *, *, #6, .F. ) ;
#16 = CLOSED_SHELL ( 'NONE', ( #231, #40, #130, #245, #124, #51 ) ) ;
#17 = ORIENTED_EDGE ( 'NONE', *, *, #201, .T. ) ;
#18 = DIRECTION ( 'NONE',  ( -1.000000000000000000, -0.000000000000000000, -0.000000000000000000 ) ) ;
#19 = CARTESIAN_POINT ( 'NONE',  ( 0.1250000000000000000, 0.000000000000000000, 0.000000000000000000 ) ) ;
#20 = PLANE ( 'NONE',  #78 ) ;
#21 = EDGE_LOOP ( 'NONE', ( #168, #95 ) ) ;
#22 = APPROVAL ( #46, 'UNSPECIFIED' ) ;
#23 = APPLICATION_CONTEXT ( 'configuration controlled 3d designs of mechanical parts and assemblies' ) ;
#24 = CIRCLE ( 'NONE', #227, 0.1870000000000000551 ) ;
#25 = CARTESIAN_POINT ( 'NONE',  ( 0.1250000000000000000, 1.200153863164406105E-17, -0.09800000000000000377 ) ) ;
#26 = DIRECTION ( 'NONE',  ( 0.000000000000000000, 0.000000000000000000, -1.000000000000000000 ) ) ;
#27 = EDGE_CURVE ( 'NONE', #71, #166, #155, .T. ) ;
#28 = APPROVAL_DATE_TIME ( #127, #213 ) ;
#29 = DATE_AND_TIME ( #203, #86 ) ;
#30 = ORIENTED_EDGE ( 'NONE', *, *, #161, .T. ) ;
#31 =( GEOMETRIC_REPRESENTATION_CONTEXT ( 3 ) GLOBAL_UNCERTAINTY_ASSIGNED_CONTEXT ( ( #215 ) ) GLOBAL_UNIT_ASSIGNED_CONTEXT ( ( #196, #99, #81 ) ) REPRESENTATION_CONTEXT ( 'NONE', 'WORKASPACE' ) );
#32 = CALENDAR_DATE ( 2021, 16, 4 ) ;
#33 = PERSON_AND_ORGANIZATION ( #49, #11 ) ;
#34 = CYLINDRICAL_SURFACE ( 'NONE', #251, 0.09800000000000000377 ) ;
#35 = EDGE_LOOP ( 'NONE', ( #15, #118, #126, #85 ) ) ;
#36 = PRODUCT_DEFINITION_SHAPE ( 'NONE', 'NONE',  #111 ) ;
#37 = CARTESIAN_POINT ( 'NONE',  ( -0.1250000000000000000, 1.200153863164406105E-17, -0.09800000000000000377 ) ) ;
#38 = DIRECTION ( 'NONE',  ( -1.000000000000000000, -0.000000000000000000, -0.000000000000000000 ) ) ;
#39 = APPROVAL_PERSON_ORGANIZATION ( #84, #22, #48 ) ;
#40 = ADVANCED_FACE ( 'NONE', ( #248 ), #133, .T. ) ;
#41 = VERTEX_POINT ( 'NONE', #1 ) ;
#42 = ADVANCED_BREP_SHAPE_REPRESENTATION ( 'WCP-0308', ( #187, #140 ), #31 ) ;
#43 = CARTESIAN_POINT ( 'NONE',  ( -0.1250000000000000000, 0.000000000000000000, 0.000000000000000000 ) ) ;
#44 = AXIS2_PLACEMENT_3D ( 'NONE', #219, #122, #182 ) ;
#45 = DIRECTION ( 'NONE',  ( 0.000000000000000000, 0.000000000000000000, -1.000000000000000000 ) ) ;
#46 = APPROVAL_STATUS ( 'not_yet_approved' ) ;
#47 = APPROVAL ( #110, 'UNSPECIFIED' ) ;
#48 = APPROVAL_ROLE ( '' ) ;
#49 = PERSON ( 'UNSPECIFIED', 'UNSPECIFIED', 'UNSPECIFIED', ('UNSPECIFIED'), ('UNSPECIFIED'), ('UNSPECIFIED') ) ;
#50 = CALENDAR_DATE ( 2021, 16, 4 ) ;
#51 = ADVANCED_FACE ( 'NONE', ( #193 ), #34, .F. ) ;
#52 = LINE ( 'NONE', #209, #206 ) ;
#53 = CC_DESIGN_APPROVAL ( #22, ( #111 ) ) ;
#54 = ORIENTED_EDGE ( 'NONE', *, *, #177, .F. ) ;
#55 = LINE ( 'NONE', #232, #211 ) ;
#56 = DIRECTION ( 'NONE',  ( 0.000000000000000000, 0.000000000000000000, 1.000000000000000000 ) ) ;
#57 = VERTEX_POINT ( 'NONE', #116 ) ;
#58 = DIRECTION ( 'NONE',  ( 1.000000000000000000, 0.000000000000000000, 0.000000000000000000 ) ) ;
#59 = DIRECTION ( 'NONE',  ( 1.000000000000000000, 0.000000000000000000, 0.000000000000000000 ) ) ;
#60 = DIRECTION ( 'NONE',  ( 1.000000000000000000, 0.000000000000000000, 0.000000000000000000 ) ) ;
#61 = CC_DESIGN_SECURITY_CLASSIFICATION ( #129, ( #198 ) ) ;
#62 = APPLICATION_PROTOCOL_DEFINITION ( 'international standard', 'config_control_design', 1994, #80 ) ;
#63 = EDGE_CURVE ( 'NONE', #228, #41, #24, .T. ) ;
#64 = DIRECTION ( 'NONE',  ( -1.000000000000000000, -0.000000000000000000, -0.000000000000000000 ) ) ;
#65 = SHAPE_DEFINITION_REPRESENTATION ( #36, #42 ) ;
#66 = LOCAL_TIME ( 15, 24, 41.00000000000000000, #145 ) ;
#67 = PERSON_AND_ORGANIZATION_ROLE ( 'creator' ) ;
#68 = ORIENTED_EDGE ( 'NONE', *, *, #149, .F. ) ;
#69 = PRODUCT ( 'WCP-0308', 'WCP-0308', '', ( #79 ) ) ;
#70 = CIRCLE ( 'NONE', #92, 0.09800000000000000377 ) ;
#71 = VERTEX_POINT ( 'NONE', #195 ) ;
#72 = DIRECTION ( 'NONE',  ( 1.000000000000000000, 0.000000000000000000, 0.000000000000000000 ) ) ;
#73 = FACE_BOUND ( 'NONE', #128, .T. ) ;
#74 = CC_DESIGN_APPROVAL ( #213, ( #129 ) ) ;
#75 = DIRECTION ( 'NONE',  ( 0.000000000000000000, 0.000000000000000000, -1.000000000000000000 ) ) ;
#76 = EDGE_LOOP ( 'NONE', ( #112, #178 ) ) ;
#77 = PRODUCT_RELATED_PRODUCT_CATEGORY ( 'detail', '', ( #69 ) ) ;
#78 = AXIS2_PLACEMENT_3D ( 'NONE', #152, #96, #75 ) ;
#79 = MECHANICAL_CONTEXT ( 'NONE', #80, 'mechanical' ) ;
#80 = APPLICATION_CONTEXT ( 'configuration controlled 3d designs of mechanical parts and assemblies' ) ;
#81 =( NAMED_UNIT ( * ) SI_UNIT ( $, .STERADIAN. ) SOLID_ANGLE_UNIT ( ) );
#82 = EDGE_CURVE ( 'NONE', #71, #13, #240, .T. ) ;
#83 = LENGTH_MEASURE_WITH_UNIT ( LENGTH_MEASURE( 0.02539999999999999897 ), #199 );
#84 = PERSON_AND_ORGANIZATION ( #49, #11 ) ;
#85 = ORIENTED_EDGE ( 'NONE', *, *, #236, .T. ) ;
#86 = LOCAL_TIME ( 15, 24, 41.00000000000000000, #204 ) ;
#87 = DATE_TIME_ROLE ( 'creation_date' ) ;
#88 = CALENDAR_DATE ( 2021, 16, 4 ) ;
#89 = ORIENTED_EDGE ( 'NONE', *, *, #161, .F. ) ;
#90 = DATE_TIME_ROLE ( 'classification_date' ) ;
#91 = ORIENTED_EDGE ( 'NONE', *, *, #6, .T. ) ;
#92 = AXIS2_PLACEMENT_3D ( 'NONE', #119, #58, #234 ) ;
#93 = CC_DESIGN_DATE_AND_TIME_ASSIGNMENT ( #239, #87, ( #111 ) ) ;
#94 = DIRECTION ( 'NONE',  ( 0.000000000000000000, 0.000000000000000000, -1.000000000000000000 ) ) ;
#95 = ORIENTED_EDGE ( 'NONE', *, *, #184, .T. ) ;
#96 = DIRECTION ( 'NONE',  ( 1.000000000000000000, 0.000000000000000000, 0.000000000000000000 ) ) ;
#97 = CARTESIAN_POINT ( 'NONE',  ( -0.1250000000000000000, 0.000000000000000000, 0.1870000000000000551 ) ) ;
#98 = VERTEX_POINT ( 'NONE', #37 ) ;
#99 =( NAMED_UNIT ( * ) PLANE_ANGLE_UNIT ( ) SI_UNIT ( $, .RADIAN. ) );
#100 = VECTOR ( 'NONE', #151, 39.37007874015748143 ) ;
#101 = DIRECTION ( 'NONE',  ( 1.000000000000000000, 0.000000000000000000, 0.000000000000000000 ) ) ;
#102 = DIRECTION ( 'NONE',  ( 0.000000000000000000, 0.000000000000000000, 1.000000000000000000 ) ) ;
#103 = PLANE ( 'NONE',  #246 ) ;
#104 = EDGE_CURVE ( 'NONE', #228, #146, #52, .T. ) ;
#105 = AXIS2_PLACEMENT_3D ( 'NONE', #142, #59, #26 ) ;
#106 = PERSON_AND_ORGANIZATION ( #49, #11 ) ;
#107 = PERSON_AND_ORGANIZATION ( #49, #11 ) ;
#108 = PERSON_AND_ORGANIZATION ( #49, #11 ) ;
#109 = LOCAL_TIME ( 15, 24, 41.00000000000000000, #186 ) ;
#110 = APPROVAL_STATUS ( 'not_yet_approved' ) ;
#111 = PRODUCT_DEFINITION ( 'UNKNOWN', '', #198, #181 ) ;
#112 = ORIENTED_EDGE ( 'NONE', *, *, #249, .T. ) ;
#113 = AXIS2_PLACEMENT_3D ( 'NONE', #238, #60, #7 ) ;
#114 = CYLINDRICAL_SURFACE ( 'NONE', #190, 0.1870000000000000551 ) ;
#115 = DIRECTION ( 'NONE',  ( -1.000000000000000000, -0.000000000000000000, -0.000000000000000000 ) ) ;
#116 = CARTESIAN_POINT ( 'NONE',  ( -0.1250000000000000000, 2.290089514405551281E-17, -0.1870000000000000551 ) ) ;
#117 = AXIS2_PLACEMENT_3D ( 'NONE', #226, #208, #2 ) ;
#118 = ORIENTED_EDGE ( 'NONE', *, *, #63, .F. ) ;
#119 = CARTESIAN_POINT ( 'NONE',  ( 0.1250000000000000000, 0.000000000000000000, 0.000000000000000000 ) ) ;
#120 = APPROVAL_PERSON_ORGANIZATION ( #106, #213, #147 ) ;
#121 = CARTESIAN_POINT ( 'NONE',  ( 0.1250000000000000000, 0.000000000000000000, 0.000000000000000000 ) ) ;
#122 = DIRECTION ( 'NONE',  ( 1.000000000000000000, 0.000000000000000000, 0.000000000000000000 ) ) ;
#123 = DIRECTION ( 'NONE',  ( 1.000000000000000000, 0.000000000000000000, 0.000000000000000000 ) ) ;
#124 = ADVANCED_FACE ( 'NONE', ( #207 ), #114, .T. ) ;
#125 = APPROVAL_DATE_TIME ( #29, #47 ) ;
#126 = ORIENTED_EDGE ( 'NONE', *, *, #104, .T. ) ;
#127 = DATE_AND_TIME ( #50, #109 ) ;
#128 = EDGE_LOOP ( 'NONE', ( #223, #194 ) ) ;
#129 = SECURITY_CLASSIFICATION ( '', '', #165 ) ;
#130 = ADVANCED_FACE ( 'NONE', ( #250, #73 ), #20, .T. ) ;
#131 = DIRECTION ( 'NONE',  ( -1.000000000000000000, -0.000000000000000000, -0.000000000000000000 ) ) ;
#132 = CIRCLE ( 'NONE', #180, 0.09800000000000000377 ) ;
#133 = CYLINDRICAL_SURFACE ( 'NONE', #158, 0.1870000000000000551 ) ;
#134 = CARTESIAN_POINT ( 'NONE',  ( 0.1250000000000000000, 0.000000000000000000, 0.000000000000000000 ) ) ;
#135 = CARTESIAN_POINT ( 'NONE',  ( 0.1250000000000000000, 0.000000000000000000, 0.000000000000000000 ) ) ;
#136 = LOCAL_TIME ( 15, 24, 41.00000000000000000, #247 ) ;
#137 = EDGE_LOOP ( 'NONE', ( #242, #54 ) ) ;
#138 = CARTESIAN_POINT ( 'NONE',  ( 0.1250000000000000000, 0.000000000000000000, 0.1870000000000000551 ) ) ;
#139 = DIRECTION ( 'NONE',  ( -1.000000000000000000, -0.000000000000000000, -0.000000000000000000 ) ) ;
#140 = AXIS2_PLACEMENT_3D ( 'NONE', #200, #237, #159 ) ;
#141 = FACE_OUTER_BOUND ( 'NONE', #252, .T. ) ;
#142 = CARTESIAN_POINT ( 'NONE',  ( -0.1250000000000000000, 0.000000000000000000, 0.000000000000000000 ) ) ;
#143 = CC_DESIGN_PERSON_AND_ORGANIZATION_ASSIGNMENT ( #33, #167, ( #198 ) ) ;
#144 = VECTOR ( 'NONE', #139, 39.37007874015748143 ) ;
#145 = COORDINATED_UNIVERSAL_TIME_OFFSET ( 8, 0, .BEHIND. ) ;
#146 = VERTEX_POINT ( 'NONE', #97 ) ;
#147 = APPROVAL_ROLE ( '' ) ;
#148 = ORIENTED_EDGE ( 'NONE', *, *, #27, .F. ) ;
#149 = EDGE_CURVE ( 'NONE', #98, #166, #217, .T. ) ;
#150 = CIRCLE ( 'NONE', #233, 0.1870000000000000551 ) ;
#151 = DIRECTION ( 'NONE',  ( -1.000000000000000000, -0.000000000000000000, -0.000000000000000000 ) ) ;
#152 = CARTESIAN_POINT ( 'NONE',  ( 0.1250000000000000000, 0.000000000000000000, 0.000000000000000000 ) ) ;
#153 = LOCAL_TIME ( 15, 24, 41.00000000000000000, #14 ) ;
#154 = DIRECTION ( 'NONE',  ( -1.000000000000000000, -0.000000000000000000, -0.000000000000000000 ) ) ;
#155 = LINE ( 'NONE', #192, #100 ) ;
#156 = CC_DESIGN_PERSON_AND_ORGANIZATION_ASSIGNMENT ( #5, #183, ( #69 ) ) ;
#157 = ORIENTED_EDGE ( 'NONE', *, *, #104, .F. ) ;
#158 = AXIS2_PLACEMENT_3D ( 'NONE', #135, #154, #56 ) ;
#159 = DIRECTION ( 'NONE',  ( 1.000000000000000000, 0.000000000000000000, 0.000000000000000000 ) ) ;
#160 = FACE_OUTER_BOUND ( 'NONE', #137, .T. ) ;
#161 = EDGE_CURVE ( 'NONE', #13, #98, #164, .T. ) ;
#162 = CARTESIAN_POINT ( 'NONE',  ( 0.1250000000000000000, 0.000000000000000000, 0.000000000000000000 ) ) ;
#163 = DIMENSIONAL_EXPONENTS ( 1.000000000000000000, 0.000000000000000000, 0.000000000000000000, 0.000000000000000000, 0.000000000000000000, 0.000000000000000000, 0.000000000000000000 ) ;
#164 = LINE ( 'NONE', #25, #144 ) ;
#165 = SECURITY_CLASSIFICATION_LEVEL ( 'unclassified' ) ;
#166 = VERTEX_POINT ( 'NONE', #197 ) ;
#167 = PERSON_AND_ORGANIZATION_ROLE ( 'design_supplier' ) ;
#168 = ORIENTED_EDGE ( 'NONE', *, *, #63, .T. ) ;
#169 = APPROVAL_DATE_TIME ( #225, #22 ) ;
#170 = ORIENTED_EDGE ( 'NONE', *, *, #184, .F. ) ;
#171 = PERSON_AND_ORGANIZATION ( #49, #11 ) ;
#172 = ORIENTED_EDGE ( 'NONE', *, *, #177, .T. ) ;
#173 = DIRECTION ( 'NONE',  ( 0.000000000000000000, 0.000000000000000000, 1.000000000000000000 ) ) ;
#174 = ORIENTED_EDGE ( 'NONE', *, *, #249, .F. ) ;
#175 = APPROVAL_PERSON_ORGANIZATION ( #108, #47, #220 ) ;
#176 = ORIENTED_EDGE ( 'NONE', *, *, #27, .T. ) ;
#177 = EDGE_CURVE ( 'NONE', #57, #146, #221, .T. ) ;
#178 = ORIENTED_EDGE ( 'NONE', *, *, #149, .T. ) ;
#179 = FACE_BOUND ( 'NONE', #76, .T. ) ;
#180 = AXIS2_PLACEMENT_3D ( 'NONE', #216, #123, #235 ) ;
#181 = DESIGN_CONTEXT ( 'detailed design', #23, 'design' ) ;
#182 = DIRECTION ( 'NONE',  ( 0.000000000000000000, 0.000000000000000000, -1.000000000000000000 ) ) ;
#183 = PERSON_AND_ORGANIZATION_ROLE ( 'design_owner' ) ;
#184 = EDGE_CURVE ( 'NONE', #41, #228, #150, .T. ) ;
#185 = CC_DESIGN_APPROVAL ( #47, ( #198 ) ) ;
#186 = COORDINATED_UNIVERSAL_TIME_OFFSET ( 8, 0, .BEHIND. ) ;
#187 = MANIFOLD_SOLID_BREP ( 'Boss-Extrude1', #16 ) ;
#188 = APPLICATION_PROTOCOL_DEFINITION ( 'international standard', 'config_control_design', 1994, #23 ) ;
#189 = CC_DESIGN_PERSON_AND_ORGANIZATION_ASSIGNMENT ( #171, #241, ( #111 ) ) ;
#190 = AXIS2_PLACEMENT_3D ( 'NONE', #19, #18, #173 ) ;
#191 = EDGE_LOOP ( 'NONE', ( #89, #17, #176, #68 ) ) ;
#192 = CARTESIAN_POINT ( 'NONE',  ( 0.1250000000000000000, 0.000000000000000000, 0.09800000000000000377 ) ) ;
#193 = FACE_OUTER_BOUND ( 'NONE', #191, .T. ) ;
#194 = ORIENTED_EDGE ( 'NONE', *, *, #201, .F. ) ;
#195 = CARTESIAN_POINT ( 'NONE',  ( 0.1250000000000000000, 0.000000000000000000, 0.09800000000000000377 ) ) ;
#196 =( CONVERSION_BASED_UNIT ( 'INCH', #83 ) LENGTH_UNIT ( ) NAMED_UNIT ( #163 ) );
#197 = CARTESIAN_POINT ( 'NONE',  ( -0.1250000000000000000, 0.000000000000000000, 0.09800000000000000377 ) ) ;
#198 = PRODUCT_DEFINITION_FORMATION_WITH_SPECIFIED_SOURCE ( 'ANY', '', #69, .NOT_KNOWN. ) ;
#199 =( LENGTH_UNIT ( ) NAMED_UNIT ( * ) SI_UNIT ( $, .METRE. ) );
#200 = CARTESIAN_POINT ( 'NONE',  ( 0.000000000000000000, 0.000000000000000000, 0.000000000000000000 ) ) ;
#201 = EDGE_CURVE ( 'NONE', #13, #71, #70, .T. ) ;
#202 = APPROVAL_STATUS ( 'not_yet_approved' ) ;
#203 = CALENDAR_DATE ( 2021, 16, 4 ) ;
#204 = COORDINATED_UNIVERSAL_TIME_OFFSET ( 8, 0, .BEHIND. ) ;
#205 = DATE_AND_TIME ( #9, #66 ) ;
#206 = VECTOR ( 'NONE', #131, 39.37007874015748143 ) ;
#207 = FACE_OUTER_BOUND ( 'NONE', #35, .T. ) ;
#208 = DIRECTION ( 'NONE',  ( 1.000000000000000000, 0.000000000000000000, 0.000000000000000000 ) ) ;
#209 = CARTESIAN_POINT ( 'NONE',  ( 0.1250000000000000000, 0.000000000000000000, 0.1870000000000000551 ) ) ;
#210 = DIRECTION ( 'NONE',  ( 0.000000000000000000, 0.000000000000000000, 1.000000000000000000 ) ) ;
#211 = VECTOR ( 'NONE', #38, 39.37007874015748143 ) ;
#212 = DIRECTION ( 'NONE',  ( 0.000000000000000000, 0.000000000000000000, -1.000000000000000000 ) ) ;
#213 = APPROVAL ( #202, 'UNSPECIFIED' ) ;
#214 = CYLINDRICAL_SURFACE ( 'NONE', #224, 0.09800000000000000377 ) ;
#215 = UNCERTAINTY_MEASURE_WITH_UNIT (LENGTH_MEASURE( 1.000000000000000082E-05 ), #196, 'distance_accuracy_value', 'NONE');
#216 = CARTESIAN_POINT ( 'NONE',  ( -0.1250000000000000000, 0.000000000000000000, 0.000000000000000000 ) ) ;
#217 = CIRCLE ( 'NONE', #44, 0.09800000000000000377 ) ;
#218 = DIRECTION ( 'NONE',  ( 1.000000000000000000, 0.000000000000000000, 0.000000000000000000 ) ) ;
#219 = CARTESIAN_POINT ( 'NONE',  ( -0.1250000000000000000, 0.000000000000000000, 0.000000000000000000 ) ) ;
#220 = APPROVAL_ROLE ( '' ) ;
#221 = CIRCLE ( 'NONE', #113, 0.1870000000000000551 ) ;
#222 = CC_DESIGN_DATE_AND_TIME_ASSIGNMENT ( #205, #90, ( #129 ) ) ;
#223 = ORIENTED_EDGE ( 'NONE', *, *, #82, .F. ) ;
#224 = AXIS2_PLACEMENT_3D ( 'NONE', #121, #64, #102 ) ;
#225 = DATE_AND_TIME ( #32, #153 ) ;
#226 = CARTESIAN_POINT ( 'NONE',  ( 0.1250000000000000000, 0.000000000000000000, 0.000000000000000000 ) ) ;
#227 = AXIS2_PLACEMENT_3D ( 'NONE', #134, #72, #94 ) ;
#228 = VERTEX_POINT ( 'NONE', #138 ) ;
#229 = CARTESIAN_POINT ( 'NONE',  ( 0.1250000000000000000, 0.000000000000000000, 0.000000000000000000 ) ) ;
#230 = CARTESIAN_POINT ( 'NONE',  ( 0.1250000000000000000, 1.200153863164406105E-17, -0.09800000000000000377 ) ) ;
#231 = ADVANCED_FACE ( 'NONE', ( #141 ), #214, .F. ) ;
#232 = CARTESIAN_POINT ( 'NONE',  ( 0.1250000000000000000, 2.290089514405551281E-17, -0.1870000000000000551 ) ) ;
#233 = AXIS2_PLACEMENT_3D ( 'NONE', #162, #101, #212 ) ;
#234 = DIRECTION ( 'NONE',  ( 0.000000000000000000, 0.000000000000000000, -1.000000000000000000 ) ) ;
#235 = DIRECTION ( 'NONE',  ( 0.000000000000000000, 0.000000000000000000, -1.000000000000000000 ) ) ;
#236 = EDGE_CURVE ( 'NONE', #146, #57, #4, .T. ) ;
#237 = DIRECTION ( 'NONE',  ( 0.000000000000000000, 0.000000000000000000, 1.000000000000000000 ) ) ;
#238 = CARTESIAN_POINT ( 'NONE',  ( -0.1250000000000000000, 0.000000000000000000, 0.000000000000000000 ) ) ;
#239 = DATE_AND_TIME ( #88, #136 ) ;
#240 = CIRCLE ( 'NONE', #117, 0.09800000000000000377 ) ;
#241 = PERSON_AND_ORGANIZATION_ROLE ( 'creator' ) ;
#242 = ORIENTED_EDGE ( 'NONE', *, *, #236, .F. ) ;
#243 = EDGE_LOOP ( 'NONE', ( #170, #91, #172, #157 ) ) ;
#244 = PERSON_AND_ORGANIZATION_ROLE ( 'classification_officer' ) ;
#245 = ADVANCED_FACE ( 'NONE', ( #160, #179 ), #103, .F. ) ;
#246 = AXIS2_PLACEMENT_3D ( 'NONE', #43, #218, #45 ) ;
#247 = COORDINATED_UNIVERSAL_TIME_OFFSET ( 8, 0, .BEHIND. ) ;
#248 = FACE_OUTER_BOUND ( 'NONE', #243, .T. ) ;
#249 = EDGE_CURVE ( 'NONE', #166, #98, #132, .T. ) ;
#250 = FACE_OUTER_BOUND ( 'NONE', #21, .T. ) ;
#251 = AXIS2_PLACEMENT_3D ( 'NONE', #229, #115, #210 ) ;
#252 = EDGE_LOOP ( 'NONE', ( #10, #30, #174, #148 ) ) ;
ENDSEC;
END-ISO-10303-21;
