ISO-10303-21;
HEADER;
FILE_DESCRIPTION (( 'STEP AP214' ),
    '1' );
FILE_NAME ('WCP-0296 Rev1.step',
    '2024-01-15T23:02:59',
    ( '' ),
    ( '' ),
    'SwSTEP 2.0',
    'SolidWorks 2022',
    '' );
FILE_SCHEMA (( 'AUTOMOTIVE_DESIGN' ));
ENDSEC;

DATA;
#1 = LENGTH_MEASURE_WITH_UNIT ( LENGTH_MEASURE( 0.02539999999999999897 ), #328 );
#2 = DIRECTION ( 'NONE',  ( 0.000000000000000000, 0.000000000000000000, 1.000000000000000000 ) ) ;
#3 = FACE_BOUND ( 'NONE', #342, .T. ) ;
#4 = LINE ( 'NONE', #331, #319 ) ;
#5 = ADVANCED_FACE ( 'NONE', ( #312 ), #71, .F. ) ;
#6 = CARTESIAN_POINT ( 'NONE',  ( -23.50000000000000000, 1.000000000000000000, 1.000000000000000222 ) ) ;
#7 = DIRECTION ( 'NONE',  ( 0.000000000000000000, 1.000000000000000000, 2.731847993664263218E-16 ) ) ;
#8 = AXIS2_PLACEMENT_3D ( 'NONE', #279, #140, #35 ) ;
#9 = SURFACE_STYLE_USAGE ( .BOTH. , #297 ) ;
#10 = LINE ( 'NONE', #249, #228 ) ;
#11 = APPLICATION_CONTEXT ( 'automotive_design' ) ;
#12 = LINE ( 'NONE', #6, #158 ) ;
#13 = EDGE_CURVE ( 'NONE', #285, #210, #128, .T. ) ;
#14 = DIMENSIONAL_EXPONENTS ( 1.000000000000000000, 0.000000000000000000, 0.000000000000000000, 0.000000000000000000, 0.000000000000000000, 0.000000000000000000, 0.000000000000000000 ) ;
#15 = DIRECTION ( 'NONE',  ( 0.000000000000000000, 0.000000000000000000, -1.000000000000000000 ) ) ;
#16 = EDGE_CURVE ( 'NONE', #100, #104, #259, .T. ) ;
#17 =( GEOMETRIC_REPRESENTATION_CONTEXT ( 3 ) GLOBAL_UNCERTAINTY_ASSIGNED_CONTEXT ( ( #148 ) ) GLOBAL_UNIT_ASSIGNED_CONTEXT ( ( #134, #108, #109 ) ) REPRESENTATION_CONTEXT ( 'NONE', 'WORKASPACE' ) );
#18 = CARTESIAN_POINT ( 'NONE',  ( 23.50000000000000000, -0.8750000000000000000, -0.8750000000000002220 ) ) ;
#19 = VERTEX_POINT ( 'NONE', #292 ) ;
#20 = ORIENTED_EDGE ( 'NONE', *, *, #105, .F. ) ;
#21 = ORIENTED_EDGE ( 'NONE', *, *, #170, .T. ) ;
#22 = AXIS2_PLACEMENT_3D ( 'NONE', #263, #28, #131 ) ;
#23 = VECTOR ( 'NONE', #57, 39.37007874015748143 ) ;
#24 = ORIENTED_EDGE ( 'NONE', *, *, #211, .F. ) ;
#25 = EDGE_LOOP ( 'NONE', ( #72, #201, #122, #159 ) ) ;
#26 = EDGE_CURVE ( 'NONE', #234, #200, #38, .T. ) ;
#27 = DIRECTION ( 'NONE',  ( 0.000000000000000000, 1.000000000000000000, 2.731847993664263218E-16 ) ) ;
#28 = DIRECTION ( 'NONE',  ( 0.000000000000000000, 1.365923996832131609E-16, -1.000000000000000000 ) ) ;
#29 = PRESENTATION_LAYER_ASSIGNMENT (  '', '', ( #257 ) ) ;
#30 = VECTOR ( 'NONE', #58, 39.37007874015748143 ) ;
#31 =( LENGTH_UNIT ( ) NAMED_UNIT ( * ) SI_UNIT ( $, .METRE. ) );
#32 = ORIENTED_EDGE ( 'NONE', *, *, #270, .F. ) ;
#33 = EDGE_CURVE ( 'NONE', #200, #19, #167, .T. ) ;
#34 =( LENGTH_UNIT ( ) NAMED_UNIT ( * ) SI_UNIT ( $, .METRE. ) );
#35 = DIRECTION ( 'NONE',  ( 0.000000000000000000, 0.000000000000000000, -1.000000000000000000 ) ) ;
#36 = DIRECTION ( 'NONE',  ( 0.000000000000000000, 1.000000000000000000, 2.731847993664263218E-16 ) ) ;
#37 = DIRECTION ( 'NONE',  ( 0.000000000000000000, 0.000000000000000000, -1.000000000000000000 ) ) ;
#38 = LINE ( 'NONE', #55, #280 ) ;
#39 = CARTESIAN_POINT ( 'NONE',  ( 23.50000000000000000, -0.8750000000000000000, -0.8750000000000002220 ) ) ;
#40 = CARTESIAN_POINT ( 'NONE',  ( -23.50000000000000000, 1.000000000000000000, -0.9999999999999996669 ) ) ;
#41 = VECTOR ( 'NONE', #36, 39.37007874015748143 ) ;
#42 = FACE_OUTER_BOUND ( 'NONE', #232, .T. ) ;
#43 = DIRECTION ( 'NONE',  ( 0.000000000000000000, -2.731847993664263218E-16, 1.000000000000000000 ) ) ;
#44 = DIRECTION ( 'NONE',  ( 0.000000000000000000, 0.000000000000000000, 1.000000000000000000 ) ) ;
#45 = AXIS2_PLACEMENT_3D ( 'NONE', #244, #110, #106 ) ;
#46 = EDGE_LOOP ( 'NONE', ( #107, #208, #238, #96 ) ) ;
#47 = ADVANCED_FACE ( 'NONE', ( #161, #3 ), #271, .F. ) ;
#48 = EDGE_LOOP ( 'NONE', ( #288, #154, #313, #150 ) ) ;
#49 = ORIENTED_EDGE ( 'NONE', *, *, #296, .T. ) ;
#50 = ORIENTED_EDGE ( 'NONE', *, *, #73, .T. ) ;
#51 = ORIENTED_EDGE ( 'NONE', *, *, #170, .F. ) ;
#52 = VECTOR ( 'NONE', #209, 39.37007874015748143 ) ;
#53 = PRODUCT_DEFINITION ( 'UNKNOWN', '', #155, #89 ) ;
#54 =( NAMED_UNIT ( * ) PLANE_ANGLE_UNIT ( ) SI_UNIT ( $, .RADIAN. ) );
#55 = CARTESIAN_POINT ( 'NONE',  ( -23.50000000000000000, 1.000000000000000000, -0.8749999999999996669 ) ) ;
#56 = PLANE ( 'NONE',  #45 ) ;
#57 = DIRECTION ( 'NONE',  ( -1.000000000000000000, -0.000000000000000000, -0.000000000000000000 ) ) ;
#58 = DIRECTION ( 'NONE',  ( 0.000000000000000000, 0.000000000000000000, 1.000000000000000000 ) ) ;
#59 = DIRECTION ( 'NONE',  ( 0.000000000000000000, -1.000000000000000000, -1.365923996832131609E-16 ) ) ;
#60 = CARTESIAN_POINT ( 'NONE',  ( 23.50000000000000000, 1.000000000000000000, 0.8750000000000002220 ) ) ;
#61 = CARTESIAN_POINT ( 'NONE',  ( 23.50000000000000000, 0.8750000000000000000, 0.8750000000000002220 ) ) ;
#62 = VECTOR ( 'NONE', #44, 39.37007874015748143 ) ;
#63 = DIRECTION ( 'NONE',  ( 0.000000000000000000, 0.000000000000000000, -1.000000000000000000 ) ) ;
#64 = LINE ( 'NONE', #61, #23 ) ;
#65 = PLANE ( 'NONE',  #267 ) ;
#66 = MANIFOLD_SOLID_BREP ( 'Extrude-Thin1', #127 ) ;
#67 = ORIENTED_EDGE ( 'NONE', *, *, #258, .T. ) ;
#68 = ORIENTED_EDGE ( 'NONE', *, *, #160, .T. ) ;
#69 = AXIS2_PLACEMENT_3D ( 'NONE', #223, #197, #163 ) ;
#70 = PRODUCT_DEFINITION_SHAPE ( 'NONE', 'NONE',  #53 ) ;
#71 = PLANE ( 'NONE',  #22 ) ;
#72 = ORIENTED_EDGE ( 'NONE', *, *, #102, .T. ) ;
#73 = EDGE_CURVE ( 'NONE', #204, #234, #324, .T. ) ;
#74 = ORIENTED_EDGE ( 'NONE', *, *, #231, .F. ) ;
#75 = ORIENTED_EDGE ( 'NONE', *, *, #160, .F. ) ;
#76 = EDGE_CURVE ( 'NONE', #19, #204, #162, .T. ) ;
#77 = ORIENTED_EDGE ( 'NONE', *, *, #76, .F. ) ;
#78 = CARTESIAN_POINT ( 'NONE',  ( -23.50000000000000000, 1.000000000000000000, -0.9999999999999996669 ) ) ;
#79 =( GEOMETRIC_REPRESENTATION_CONTEXT ( 3 ) GLOBAL_UNCERTAINTY_ASSIGNED_CONTEXT ( ( #199 ) ) GLOBAL_UNIT_ASSIGNED_CONTEXT ( ( #184, #54, #214 ) ) REPRESENTATION_CONTEXT ( 'NONE', 'WORKASPACE' ) );
#80 = FACE_OUTER_BOUND ( 'NONE', #126, .T. ) ;
#81 = VECTOR ( 'NONE', #171, 39.37007874015748143 ) ;
#82 = ADVANCED_FACE ( 'NONE', ( #254 ), #218, .T. ) ;
#83 = LINE ( 'NONE', #221, #41 ) ;
#84 = FILL_AREA_STYLE ('',( #242 ) ) ;
#85 = CARTESIAN_POINT ( 'NONE',  ( 23.50000000000000000, -0.8750000000000000000, 0.8750000000000000000 ) ) ;
#86 = PRESENTATION_STYLE_ASSIGNMENT (( #320 ) ) ;
#87 = FACE_OUTER_BOUND ( 'NONE', #230, .T. ) ;
#88 = DIRECTION ( 'NONE',  ( -1.000000000000000000, -0.000000000000000000, -0.000000000000000000 ) ) ;
#89 = PRODUCT_DEFINITION_CONTEXT ( 'detailed design', #11, 'design' ) ;
#90 = DIRECTION ( 'NONE',  ( 0.000000000000000000, -2.731847993664263218E-16, 1.000000000000000000 ) ) ;
#91 = DIRECTION ( 'NONE',  ( 0.000000000000000000, 1.000000000000000000, 2.731847993664263218E-16 ) ) ;
#92 = CARTESIAN_POINT ( 'NONE',  ( 23.50000000000000000, 0.000000000000000000, 0.000000000000000000 ) ) ;
#93 = LINE ( 'NONE', #85, #202 ) ;
#94 = LINE ( 'NONE', #116, #289 ) ;
#95 = LINE ( 'NONE', #277, #240 ) ;
#96 = ORIENTED_EDGE ( 'NONE', *, *, #275, .T. ) ;
#97 = UNCERTAINTY_MEASURE_WITH_UNIT (LENGTH_MEASURE( 1.000000000000000082E-05 ), #115, 'distance_accuracy_value', 'NONE');
#98 = ORIENTED_EDGE ( 'NONE', *, *, #241, .T. ) ;
#99 = VECTOR ( 'NONE', #137, 39.37007874015748143 ) ;
#100 = VERTEX_POINT ( 'NONE', #326 ) ;
#101 = CARTESIAN_POINT ( 'NONE',  ( 23.50000000000000000, -1.000000000000000000, -1.000000000000000222 ) ) ;
#102 = EDGE_CURVE ( 'NONE', #104, #210, #12, .T. ) ;
#103 = EDGE_LOOP ( 'NONE', ( #77, #51, #157, #235 ) ) ;
#104 = VERTEX_POINT ( 'NONE', #112 ) ;
#105 = EDGE_CURVE ( 'NONE', #316, #198, #83, .T. ) ;
#106 = DIRECTION ( 'NONE',  ( 0.000000000000000000, -0.000000000000000000, 1.000000000000000000 ) ) ;
#107 = ORIENTED_EDGE ( 'NONE', *, *, #26, .F. ) ;
#108 =( NAMED_UNIT ( * ) PLANE_ANGLE_UNIT ( ) SI_UNIT ( $, .RADIAN. ) );
#109 =( NAMED_UNIT ( * ) SI_UNIT ( $, .STERADIAN. ) SOLID_ANGLE_UNIT ( ) );
#110 = DIRECTION ( 'NONE',  ( -0.000000000000000000, 1.000000000000000000, 0.000000000000000000 ) ) ;
#111 = CARTESIAN_POINT ( 'NONE',  ( 23.50000000000000000, 1.000000000000000000, 1.000000000000000222 ) ) ;
#112 = CARTESIAN_POINT ( 'NONE',  ( -23.50000000000000000, 1.000000000000000000, 1.000000000000000222 ) ) ;
#113 = VECTOR ( 'NONE', #117, 39.37007874015748143 ) ;
#114 = CARTESIAN_POINT ( 'NONE',  ( -23.50000000000000000, -1.000000000000000000, -1.000000000000000222 ) ) ;
#115 =( CONVERSION_BASED_UNIT ( 'INCH', #1 ) LENGTH_UNIT ( ) NAMED_UNIT ( #192 ) );
#116 = CARTESIAN_POINT ( 'NONE',  ( 23.50000000000000000, 0.8750000000000000000, -0.8749999999999996669 ) ) ;
#117 = DIRECTION ( 'NONE',  ( 0.000000000000000000, -1.000000000000000000, -1.365923996832131609E-16 ) ) ;
#118 = DIRECTION ( 'NONE',  ( 0.000000000000000000, -1.000000000000000000, -2.731847993664263218E-16 ) ) ;
#119 = VECTOR ( 'NONE', #27, 39.37007874015748143 ) ;
#120 = EDGE_CURVE ( 'NONE', #179, #204, #93, .T. ) ;
#121 = LINE ( 'NONE', #139, #195 ) ;
#122 = ORIENTED_EDGE ( 'NONE', *, *, #212, .F. ) ;
#123 = ORIENTED_EDGE ( 'NONE', *, *, #276, .F. ) ;
#124 = MECHANICAL_DESIGN_GEOMETRIC_PRESENTATION_REPRESENTATION (  '', ( #257 ), #79 ) ;
#125 = CARTESIAN_POINT ( 'NONE',  ( 23.50000000000000000, -1.000000000000000000, -1.000000000000000222 ) ) ;
#126 = EDGE_LOOP ( 'NONE', ( #177, #152, #68, #98 ) ) ;
#127 = CLOSED_SHELL ( 'NONE', ( #193, #47, #145, #207, #5, #182, #217, #318, #82, #344 ) ) ;
#128 = LINE ( 'NONE', #341, #213 ) ;
#129 = ORIENTED_EDGE ( 'NONE', *, *, #211, .T. ) ;
#130 = LINE ( 'NONE', #101, #317 ) ;
#131 = DIRECTION ( 'NONE',  ( 0.000000000000000000, 1.000000000000000000, 1.365923996832131609E-16 ) ) ;
#132 = FACE_OUTER_BOUND ( 'NONE', #314, .T. ) ;
#133 = ORIENTED_EDGE ( 'NONE', *, *, #76, .T. ) ;
#134 =( CONVERSION_BASED_UNIT ( 'INCH', #347 ) LENGTH_UNIT ( ) NAMED_UNIT ( #14 ) );
#135 = EDGE_CURVE ( 'NONE', #198, #100, #165, .T. ) ;
#136 = VECTOR ( 'NONE', #278, 39.37007874015748143 ) ;
#137 = DIRECTION ( 'NONE',  ( 0.000000000000000000, 0.000000000000000000, -1.000000000000000000 ) ) ;
#138 = SURFACE_SIDE_STYLE ('',( #323 ) ) ;
#139 = CARTESIAN_POINT ( 'NONE',  ( 23.50000000000000000, 1.000000000000000000, -0.9999999999999996669 ) ) ;
#140 = DIRECTION ( 'NONE',  ( 1.000000000000000000, 0.000000000000000000, 0.000000000000000000 ) ) ;
#141 = DIRECTION ( 'NONE',  ( -1.000000000000000000, -0.000000000000000000, -0.000000000000000000 ) ) ;
#142 = PLANE ( 'NONE',  #219 ) ;
#143 = CARTESIAN_POINT ( 'NONE',  ( -23.50000000000000000, 1.000000000000000000, 1.000000000000000222 ) ) ;
#144 = DIRECTION ( 'NONE',  ( 0.000000000000000000, -1.000000000000000000, -2.731847993664263218E-16 ) ) ;
#145 = ADVANCED_FACE ( 'NONE', ( #224 ), #330, .F. ) ;
#146 = LINE ( 'NONE', #143, #62 ) ;
#147 = DIRECTION ( 'NONE',  ( -1.000000000000000000, -0.000000000000000000, -0.000000000000000000 ) ) ;
#148 = UNCERTAINTY_MEASURE_WITH_UNIT (LENGTH_MEASURE( 1.000000000000000082E-05 ), #134, 'distance_accuracy_value', 'NONE');
#149 = DIRECTION ( 'NONE',  ( -1.000000000000000000, -0.000000000000000000, -0.000000000000000000 ) ) ;
#150 = ORIENTED_EDGE ( 'NONE', *, *, #270, .T. ) ;
#151 = CARTESIAN_POINT ( 'NONE',  ( 23.50000000000000000, 1.000000000000000000, -0.8749999999999996669 ) ) ;
#152 = ORIENTED_EDGE ( 'NONE', *, *, #120, .F. ) ;
#153 = ORIENTED_EDGE ( 'NONE', *, *, #266, .F. ) ;
#154 = ORIENTED_EDGE ( 'NONE', *, *, #135, .T. ) ;
#155 = PRODUCT_DEFINITION_FORMATION_WITH_SPECIFIED_SOURCE ( 'ANY', '', #346, .NOT_KNOWN. ) ;
#156 = APPLICATION_PROTOCOL_DEFINITION ( 'draft international standard', 'automotive_design', 1998, #11 ) ;
#157 = ORIENTED_EDGE ( 'NONE', *, *, #276, .T. ) ;
#158 = VECTOR ( 'NONE', #300, 39.37007874015748143 ) ;
#159 = ORIENTED_EDGE ( 'NONE', *, *, #16, .T. ) ;
#160 = EDGE_CURVE ( 'NONE', #179, #239, #282, .T. ) ;
#161 = FACE_OUTER_BOUND ( 'NONE', #262, .T. ) ;
#162 = LINE ( 'NONE', #251, #113 ) ;
#163 = DIRECTION ( 'NONE',  ( 0.000000000000000000, -0.000000000000000000, 1.000000000000000000 ) ) ;
#164 = CARTESIAN_POINT ( 'NONE',  ( 23.50000000000000000, 0.8750000000000000000, 1.000000000000000222 ) ) ;
#165 = LINE ( 'NONE', #226, #30 ) ;
#166 = FACE_OUTER_BOUND ( 'NONE', #46, .T. ) ;
#167 = LINE ( 'NONE', #185, #168 ) ;
#168 = VECTOR ( 'NONE', #304, 39.37007874015748143 ) ;
#169 = LINE ( 'NONE', #164, #136 ) ;
#170 = EDGE_CURVE ( 'NONE', #340, #19, #64, .T. ) ;
#171 = DIRECTION ( 'NONE',  ( 0.000000000000000000, 0.000000000000000000, -1.000000000000000000 ) ) ;
#172 = DIRECTION ( 'NONE',  ( 0.000000000000000000, -0.000000000000000000, -1.000000000000000000 ) ) ;
#173 = PRODUCT_RELATED_PRODUCT_CATEGORY ( 'part', '', ( #346 ) ) ;
#174 = ORIENTED_EDGE ( 'NONE', *, *, #296, .F. ) ;
#175 = COLOUR_RGB ( '',0.8666666666666666963, 0.9098039215686274384, 1.000000000000000000 ) ;
#176 = ORIENTED_EDGE ( 'NONE', *, *, #237, .T. ) ;
#177 = ORIENTED_EDGE ( 'NONE', *, *, #73, .F. ) ;
#178 = ORIENTED_EDGE ( 'NONE', *, *, #266, .T. ) ;
#179 = VERTEX_POINT ( 'NONE', #189 ) ;
#180 = VECTOR ( 'NONE', #334, 39.37007874015748143 ) ;
#181 = ORIENTED_EDGE ( 'NONE', *, *, #294, .F. ) ;
#182 = ADVANCED_FACE ( 'NONE', ( #42 ), #307, .F. ) ;
#183 = AXIS2_PLACEMENT_3D ( 'NONE', #60, #272, #188 ) ;
#184 =( CONVERSION_BASED_UNIT ( 'INCH', #269 ) LENGTH_UNIT ( ) NAMED_UNIT ( #245 ) );
#185 = CARTESIAN_POINT ( 'NONE',  ( -23.50000000000000000, 0.8750000000000000000, 1.000000000000000222 ) ) ;
#186 = PRODUCT_CONTEXT ( 'NONE', #321, 'mechanical' ) ;
#187 = VECTOR ( 'NONE', #7, 39.37007874015748143 ) ;
#188 = DIRECTION ( 'NONE',  ( 0.000000000000000000, 1.000000000000000000, 1.365923996832131609E-16 ) ) ;
#189 = CARTESIAN_POINT ( 'NONE',  ( 23.50000000000000000, -0.8750000000000000000, 0.8750000000000000000 ) ) ;
#190 = DIRECTION ( 'NONE',  ( 1.000000000000000000, 0.000000000000000000, 0.000000000000000000 ) ) ;
#191 = CARTESIAN_POINT ( 'NONE',  ( 23.50000000000000000, 1.000000000000000000, -0.9999999999999996669 ) ) ;
#192 = DIMENSIONAL_EXPONENTS ( 1.000000000000000000, 0.000000000000000000, 0.000000000000000000, 0.000000000000000000, 0.000000000000000000, 0.000000000000000000, 0.000000000000000000 ) ;
#193 = ADVANCED_FACE ( 'NONE', ( #229, #335 ), #65, .T. ) ;
#194 = CARTESIAN_POINT ( 'NONE',  ( -23.50000000000000000, -1.000000000000000000, 1.000000000000000000 ) ) ;
#195 = VECTOR ( 'NONE', #299, 39.37007874015748143 ) ;
#196 = FILL_AREA_STYLE_COLOUR ( '', #295 ) ;
#197 = DIRECTION ( 'NONE',  ( -0.000000000000000000, 1.000000000000000000, 0.000000000000000000 ) ) ;
#198 = VERTEX_POINT ( 'NONE', #281 ) ;
#199 = UNCERTAINTY_MEASURE_WITH_UNIT (LENGTH_MEASURE( 1.000000000000000082E-05 ), #184, 'distance_accuracy_value', 'NONE');
#200 = VERTEX_POINT ( 'NONE', #301 ) ;
#201 = ORIENTED_EDGE ( 'NONE', *, *, #13, .F. ) ;
#202 = VECTOR ( 'NONE', #88, 39.37007874015748143 ) ;
#203 = ORIENTED_EDGE ( 'NONE', *, *, #102, .F. ) ;
#204 = VERTEX_POINT ( 'NONE', #253 ) ;
#205 = CARTESIAN_POINT ( 'NONE',  ( 23.50000000000000000, 0.8750000000000000000, 1.000000000000000222 ) ) ;
#206 = ORIENTED_EDGE ( 'NONE', *, *, #275, .F. ) ;
#207 = ADVANCED_FACE ( 'NONE', ( #87 ), #303, .F. ) ;
#208 = ORIENTED_EDGE ( 'NONE', *, *, #241, .F. ) ;
#209 = DIRECTION ( 'NONE',  ( -1.000000000000000000, -0.000000000000000000, -0.000000000000000000 ) ) ;
#210 = VERTEX_POINT ( 'NONE', #194 ) ;
#211 = EDGE_CURVE ( 'NONE', #338, #104, #146, .T. ) ;
#212 = EDGE_CURVE ( 'NONE', #100, #285, #255, .T. ) ;
#213 = VECTOR ( 'NONE', #147, 39.37007874015748143 ) ;
#214 =( NAMED_UNIT ( * ) SI_UNIT ( $, .STERADIAN. ) SOLID_ANGLE_UNIT ( ) );
#215 = SURFACE_STYLE_FILL_AREA ( #246 ) ;
#216 = DIRECTION ( 'NONE',  ( 1.000000000000000000, 0.000000000000000000, 0.000000000000000000 ) ) ;
#217 = ADVANCED_FACE ( 'NONE', ( #166 ), #142, .T. ) ;
#218 = PLANE ( 'NONE',  #183 ) ;
#219 = AXIS2_PLACEMENT_3D ( 'NONE', #327, #90, #118 ) ;
#220 = DIRECTION ( 'NONE',  ( 0.000000000000000000, -1.000000000000000000, -1.365923996832131609E-16 ) ) ;
#221 = CARTESIAN_POINT ( 'NONE',  ( 23.50000000000000000, 1.000000000000000000, -0.9999999999999996669 ) ) ;
#222 = STYLED_ITEM ( 'NONE', ( #248 ), #66 ) ;
#223 = CARTESIAN_POINT ( 'NONE',  ( 23.50000000000000000, -1.000000000000000000, 1.000000000000000000 ) ) ;
#224 = FACE_OUTER_BOUND ( 'NONE', #343, .T. ) ;
#225 = CARTESIAN_POINT ( 'NONE',  ( 23.50000000000000000, 0.8750000000000000000, -0.8749999999999996669 ) ) ;
#226 = CARTESIAN_POINT ( 'NONE',  ( 23.50000000000000000, 1.000000000000000000, 1.000000000000000222 ) ) ;
#227 = CARTESIAN_POINT ( 'NONE',  ( 23.50000000000000000, 1.000000000000000000, 1.000000000000000222 ) ) ;
#228 = VECTOR ( 'NONE', #15, 39.37007874015748143 ) ;
#229 = FACE_OUTER_BOUND ( 'NONE', #48, .T. ) ;
#230 = EDGE_LOOP ( 'NONE', ( #129, #264, #290, #67 ) ) ;
#231 = EDGE_CURVE ( 'NONE', #265, #340, #169, .T. ) ;
#232 = EDGE_LOOP ( 'NONE', ( #176, #174, #32, #236 ) ) ;
#233 = AXIS2_PLACEMENT_3D ( 'NONE', #111, #283, #172 ) ;
#234 = VERTEX_POINT ( 'NONE', #273 ) ;
#235 = ORIENTED_EDGE ( 'NONE', *, *, #120, .T. ) ;
#236 = ORIENTED_EDGE ( 'NONE', *, *, #13, .T. ) ;
#237 = EDGE_CURVE ( 'NONE', #210, #291, #95, .T. ) ;
#238 = ORIENTED_EDGE ( 'NONE', *, *, #294, .T. ) ;
#239 = VERTEX_POINT ( 'NONE', #39 ) ;
#240 = VECTOR ( 'NONE', #37, 39.37007874015748143 ) ;
#241 = EDGE_CURVE ( 'NONE', #239, #234, #256, .T. ) ;
#242 = FILL_AREA_STYLE_COLOUR ( '', #175 ) ;
#243 = ORIENTED_EDGE ( 'NONE', *, *, #33, .T. ) ;
#244 = CARTESIAN_POINT ( 'NONE',  ( 23.50000000000000000, -0.8750000000000000000, 1.000000000000000000 ) ) ;
#245 = DIMENSIONAL_EXPONENTS ( 1.000000000000000000, 0.000000000000000000, 0.000000000000000000, 0.000000000000000000, 0.000000000000000000, 0.000000000000000000, 0.000000000000000000 ) ;
#246 = FILL_AREA_STYLE ('',( #196 ) ) ;
#247 = CARTESIAN_POINT ( 'NONE',  ( 0.000000000000000000, 0.000000000000000000, 0.000000000000000000 ) ) ;
#248 = PRESENTATION_STYLE_ASSIGNMENT (( #9 ) ) ;
#249 = CARTESIAN_POINT ( 'NONE',  ( 23.50000000000000000, -1.000000000000000000, 1.000000000000000000 ) ) ;
#250 = CARTESIAN_POINT ( 'NONE',  ( 23.50000000000000000, -1.000000000000000000, 1.000000000000000000 ) ) ;
#251 = CARTESIAN_POINT ( 'NONE',  ( -23.50000000000000000, 1.000000000000000000, 0.8750000000000002220 ) ) ;
#252 = PRESENTATION_LAYER_ASSIGNMENT (  '', '', ( #222 ) ) ;
#253 = CARTESIAN_POINT ( 'NONE',  ( -23.50000000000000000, -0.8750000000000000000, 0.8750000000000000000 ) ) ;
#254 = FACE_OUTER_BOUND ( 'NONE', #103, .T. ) ;
#255 = LINE ( 'NONE', #227, #345 ) ;
#256 = LINE ( 'NONE', #18, #180 ) ;
#257 = STYLED_ITEM ( 'NONE', ( #86 ), #293 ) ;
#258 = EDGE_CURVE ( 'NONE', #198, #338, #121, .T. ) ;
#259 = LINE ( 'NONE', #336, #52 ) ;
#260 = DIRECTION ( 'NONE',  ( 0.000000000000000000, -1.000000000000000000, 0.000000000000000000 ) ) ;
#261 = ORIENTED_EDGE ( 'NONE', *, *, #33, .F. ) ;
#262 = EDGE_LOOP ( 'NONE', ( #153, #310, #203, #24 ) ) ;
#263 = CARTESIAN_POINT ( 'NONE',  ( 23.50000000000000000, 1.000000000000000000, 1.000000000000000222 ) ) ;
#264 = ORIENTED_EDGE ( 'NONE', *, *, #16, .F. ) ;
#265 = VERTEX_POINT ( 'NONE', #225 ) ;
#266 = EDGE_CURVE ( 'NONE', #291, #338, #305, .T. ) ;
#267 = AXIS2_PLACEMENT_3D ( 'NONE', #92, #190, #63 ) ;
#268 = ORIENTED_EDGE ( 'NONE', *, *, #231, .T. ) ;
#269 = LENGTH_MEASURE_WITH_UNIT ( LENGTH_MEASURE( 0.02539999999999999897 ), #34 );
#270 = EDGE_CURVE ( 'NONE', #285, #316, #10, .T. ) ;
#271 = PLANE ( 'NONE',  #8 ) ;
#272 = DIRECTION ( 'NONE',  ( 0.000000000000000000, 1.365923996832131609E-16, -1.000000000000000000 ) ) ;
#273 = CARTESIAN_POINT ( 'NONE',  ( -23.50000000000000000, -0.8750000000000000000, -0.8750000000000002220 ) ) ;
#274 = CARTESIAN_POINT ( 'NONE',  ( -23.50000000000000000, -0.8750000000000000000, 1.000000000000000000 ) ) ;
#275 = EDGE_CURVE ( 'NONE', #265, #200, #94, .T. ) ;
#276 = EDGE_CURVE ( 'NONE', #340, #179, #4, .T. ) ;
#277 = CARTESIAN_POINT ( 'NONE',  ( -23.50000000000000000, -1.000000000000000000, 1.000000000000000000 ) ) ;
#278 = DIRECTION ( 'NONE',  ( 0.000000000000000000, 0.000000000000000000, 1.000000000000000000 ) ) ;
#279 = CARTESIAN_POINT ( 'NONE',  ( -23.50000000000000000, 0.000000000000000000, 0.000000000000000000 ) ) ;
#280 = VECTOR ( 'NONE', #91, 39.37007874015748143 ) ;
#281 = CARTESIAN_POINT ( 'NONE',  ( 23.50000000000000000, 1.000000000000000000, -0.9999999999999996669 ) ) ;
#282 = LINE ( 'NONE', #306, #81 ) ;
#283 = DIRECTION ( 'NONE',  ( 0.000000000000000000, -1.000000000000000000, 0.000000000000000000 ) ) ;
#284 = EDGE_LOOP ( 'NONE', ( #74, #181, #75, #123 ) ) ;
#285 = VERTEX_POINT ( 'NONE', #250 ) ;
#286 = ORIENTED_EDGE ( 'NONE', *, *, #258, .F. ) ;
#287 = CARTESIAN_POINT ( 'NONE',  ( 23.50000000000000000, 0.8750000000000000000, 0.8750000000000002220 ) ) ;
#288 = ORIENTED_EDGE ( 'NONE', *, *, #105, .T. ) ;
#289 = VECTOR ( 'NONE', #141, 39.37007874015748143 ) ;
#290 = ORIENTED_EDGE ( 'NONE', *, *, #135, .F. ) ;
#291 = VERTEX_POINT ( 'NONE', #114 ) ;
#292 = CARTESIAN_POINT ( 'NONE',  ( -23.50000000000000000, 0.8750000000000000000, 0.8750000000000002220 ) ) ;
#293 = ADVANCED_BREP_SHAPE_REPRESENTATION ( 'WCP-0296 Rev1', ( #66, #333 ), #17 ) ;
#294 = EDGE_CURVE ( 'NONE', #239, #265, #329, .T. ) ;
#295 = COLOUR_RGB ( '',0.8666666666666666963, 0.9098039215686274384, 1.000000000000000000 ) ;
#296 = EDGE_CURVE ( 'NONE', #316, #291, #130, .T. ) ;
#297 = SURFACE_SIDE_STYLE ('',( #215 ) ) ;
#298 = SHAPE_DEFINITION_REPRESENTATION ( #70, #293 ) ;
#299 = DIRECTION ( 'NONE',  ( -1.000000000000000000, -0.000000000000000000, -0.000000000000000000 ) ) ;
#300 = DIRECTION ( 'NONE',  ( 0.000000000000000000, -1.000000000000000000, -1.365923996832131609E-16 ) ) ;
#301 = CARTESIAN_POINT ( 'NONE',  ( -23.50000000000000000, 0.8750000000000000000, -0.8749999999999996669 ) ) ;
#302 =( NAMED_UNIT ( * ) PLANE_ANGLE_UNIT ( ) SI_UNIT ( $, .RADIAN. ) );
#303 = PLANE ( 'NONE',  #233 ) ;
#304 = DIRECTION ( 'NONE',  ( 0.000000000000000000, 0.000000000000000000, 1.000000000000000000 ) ) ;
#305 = LINE ( 'NONE', #40, #187 ) ;
#306 = CARTESIAN_POINT ( 'NONE',  ( 23.50000000000000000, -0.8750000000000000000, 1.000000000000000000 ) ) ;
#307 = PLANE ( 'NONE',  #69 ) ;
#308 = ORIENTED_EDGE ( 'NONE', *, *, #26, .T. ) ;
#309 = AXIS2_PLACEMENT_3D ( 'NONE', #205, #260, #315 ) ;
#310 = ORIENTED_EDGE ( 'NONE', *, *, #237, .F. ) ;
#311 =( GEOMETRIC_REPRESENTATION_CONTEXT ( 3 ) GLOBAL_UNCERTAINTY_ASSIGNED_CONTEXT ( ( #97 ) ) GLOBAL_UNIT_ASSIGNED_CONTEXT ( ( #115, #302, #332 ) ) REPRESENTATION_CONTEXT ( 'NONE', 'WORKASPACE' ) );
#312 = FACE_OUTER_BOUND ( 'NONE', #25, .T. ) ;
#313 = ORIENTED_EDGE ( 'NONE', *, *, #212, .T. ) ;
#314 = EDGE_LOOP ( 'NONE', ( #261, #206, #268, #21 ) ) ;
#315 = DIRECTION ( 'NONE',  ( 0.000000000000000000, -0.000000000000000000, -1.000000000000000000 ) ) ;
#316 = VERTEX_POINT ( 'NONE', #125 ) ;
#317 = VECTOR ( 'NONE', #149, 39.37007874015748143 ) ;
#318 = ADVANCED_FACE ( 'NONE', ( #132 ), #337, .T. ) ;
#319 = VECTOR ( 'NONE', #220, 39.37007874015748143 ) ;
#320 = SURFACE_STYLE_USAGE ( .BOTH. , #138 ) ;
#321 = APPLICATION_CONTEXT ( 'automotive_design' ) ;
#322 = AXIS2_PLACEMENT_3D ( 'NONE', #191, #43, #144 ) ;
#323 = SURFACE_STYLE_FILL_AREA ( #84 ) ;
#324 = LINE ( 'NONE', #274, #99 ) ;
#325 = APPLICATION_PROTOCOL_DEFINITION ( 'draft international standard', 'automotive_design', 1998, #321 ) ;
#326 = CARTESIAN_POINT ( 'NONE',  ( 23.50000000000000000, 1.000000000000000000, 1.000000000000000222 ) ) ;
#327 = CARTESIAN_POINT ( 'NONE',  ( 23.50000000000000000, 1.000000000000000000, -0.8749999999999996669 ) ) ;
#328 =( LENGTH_UNIT ( ) NAMED_UNIT ( * ) SI_UNIT ( $, .METRE. ) );
#329 = LINE ( 'NONE', #151, #119 ) ;
#330 = PLANE ( 'NONE',  #322 ) ;
#331 = CARTESIAN_POINT ( 'NONE',  ( 23.50000000000000000, 1.000000000000000000, 0.8750000000000002220 ) ) ;
#332 =( NAMED_UNIT ( * ) SI_UNIT ( $, .STERADIAN. ) SOLID_ANGLE_UNIT ( ) );
#333 = AXIS2_PLACEMENT_3D ( 'NONE', #247, #2, #216 ) ;
#334 = DIRECTION ( 'NONE',  ( -1.000000000000000000, -0.000000000000000000, -0.000000000000000000 ) ) ;
#335 = FACE_BOUND ( 'NONE', #284, .T. ) ;
#336 = CARTESIAN_POINT ( 'NONE',  ( 23.50000000000000000, 1.000000000000000000, 1.000000000000000222 ) ) ;
#337 = PLANE ( 'NONE',  #309 ) ;
#338 = VERTEX_POINT ( 'NONE', #78 ) ;
#339 = MECHANICAL_DESIGN_GEOMETRIC_PRESENTATION_REPRESENTATION (  '', ( #222 ), #311 ) ;
#340 = VERTEX_POINT ( 'NONE', #287 ) ;
#341 = CARTESIAN_POINT ( 'NONE',  ( 23.50000000000000000, -1.000000000000000000, 1.000000000000000000 ) ) ;
#342 = EDGE_LOOP ( 'NONE', ( #308, #243, #133, #50 ) ) ;
#343 = EDGE_LOOP ( 'NONE', ( #178, #286, #20, #49 ) ) ;
#344 = ADVANCED_FACE ( 'NONE', ( #80 ), #56, .T. ) ;
#345 = VECTOR ( 'NONE', #59, 39.37007874015748143 ) ;
#346 = PRODUCT ( 'WCP-0296 Rev1', 'WCP-0296 Rev1', '', ( #186 ) ) ;
#347 = LENGTH_MEASURE_WITH_UNIT ( LENGTH_MEASURE( 0.02539999999999999897 ), #31 );
ENDSEC;
END-ISO-10303-21;
