ISO-10303-21;
HEADER;
FILE_DESCRIPTION (( 'STEP AP214' ),
    '1' );
FILE_NAME ('WCP-0295 Rev1.step',
    '2023-12-27T21:22:35',
    ( '' ),
    ( '' ),
    'SwSTEP 2.0',
    'SolidWorks 2022',
    '' );
FILE_SCHEMA (( 'AUTOMOTIVE_DESIGN' ));
ENDSEC;

DATA;
#1 = COLOUR_RGB ( '',0.2980392156862745057, 0.2980392156862745057, 0.2980392156862745057 ) ;
#2 = EDGE_LOOP ( 'NONE', ( #56, #146, #43, #65 ) ) ;
#3 = EDGE_CURVE ( 'NONE', #181, #155, #92, .T. ) ;
#4 = FILL_AREA_STYLE_COLOUR ( '', #44 ) ;
#5 = FILL_AREA_STYLE_COLOUR ( '', #1 ) ;
#6 = EDGE_LOOP ( 'NONE', ( #132, #42, #39, #136 ) ) ;
#7 = SURFACE_SIDE_STYLE ('',( #89 ) ) ;
#8 = PRESENTATION_LAYER_ASSIGNMENT (  '', '', ( #131 ) ) ;
#9 = DIRECTION ( 'NONE',  ( 9.106159978880878627E-17, 0.000000000000000000, 1.000000000000000000 ) ) ;
#10 = PRODUCT_RELATED_PRODUCT_CATEGORY ( 'part', '', ( #205 ) ) ;
#11 = VERTEX_POINT ( 'NONE', #186 ) ;
#12 = CARTESIAN_POINT ( 'NONE',  ( 11.99999999999999822, 0.1250000000000000000, -23.99999999999999645 ) ) ;
#13 = VECTOR ( 'NONE', #157, 39.37007874015748143 ) ;
#14 = EDGE_CURVE ( 'NONE', #115, #64, #25, .T. ) ;
#15 = PLANE ( 'NONE',  #147 ) ;
#16 = UNCERTAINTY_MEASURE_WITH_UNIT (LENGTH_MEASURE( 1.000000000000000082E-05 ), #19, 'distance_accuracy_value', 'NONE');
#17 = VECTOR ( 'NONE', #9, 39.37007874015748143 ) ;
#18 = EDGE_CURVE ( 'NONE', #64, #110, #41, .T. ) ;
#19 =( CONVERSION_BASED_UNIT ( 'INCH', #34 ) LENGTH_UNIT ( ) NAMED_UNIT ( #144 ) );
#20 =( NAMED_UNIT ( * ) SI_UNIT ( $, .STERADIAN. ) SOLID_ANGLE_UNIT ( ) );
#21 =( NAMED_UNIT ( * ) PLANE_ANGLE_UNIT ( ) SI_UNIT ( $, .RADIAN. ) );
#22 = EDGE_CURVE ( 'NONE', #52, #11, #174, .T. ) ;
#23 = LINE ( 'NONE', #80, #134 ) ;
#24 = APPLICATION_PROTOCOL_DEFINITION ( 'draft international standard', 'automotive_design', 1998, #126 ) ;
#25 = LINE ( 'NONE', #182, #13 ) ;
#26 = EDGE_LOOP ( 'NONE', ( #127, #45, #59, #145 ) ) ;
#27 = DIRECTION ( 'NONE',  ( -1.821231995776175725E-16, -0.000000000000000000, -1.000000000000000000 ) ) ;
#28 = DIRECTION ( 'NONE',  ( 9.106159978880878627E-17, 0.000000000000000000, 1.000000000000000000 ) ) ;
#29 = VECTOR ( 'NONE', #189, 39.37007874015748143 ) ;
#30 = CARTESIAN_POINT ( 'NONE',  ( 12.00000000000000711, 0.1250000000000000000, 24.00000000000000711 ) ) ;
#31 = CARTESIAN_POINT ( 'NONE',  ( -12.00000000000000355, -0.1250000000000000000, -23.99999999999999645 ) ) ;
#32 =( GEOMETRIC_REPRESENTATION_CONTEXT ( 3 ) GLOBAL_UNCERTAINTY_ASSIGNED_CONTEXT ( ( #119 ) ) GLOBAL_UNIT_ASSIGNED_CONTEXT ( ( #61, #21, #63 ) ) REPRESENTATION_CONTEXT ( 'NONE', 'WORKASPACE' ) );
#33 = CARTESIAN_POINT ( 'NONE',  ( -12.00000000000000355, 0.1250000000000000000, -23.99999999999999645 ) ) ;
#34 = LENGTH_MEASURE_WITH_UNIT ( LENGTH_MEASURE( 0.02539999999999999897 ), #82 );
#35 = ORIENTED_EDGE ( 'NONE', *, *, #150, .T. ) ;
#36 = AXIS2_PLACEMENT_3D ( 'NONE', #30, #196, #81 ) ;
#37 = LENGTH_MEASURE_WITH_UNIT ( LENGTH_MEASURE( 0.02539999999999999897 ), #183 );
#38 = APPLICATION_CONTEXT ( 'automotive_design' ) ;
#39 = ORIENTED_EDGE ( 'NONE', *, *, #66, .F. ) ;
#40 = MECHANICAL_DESIGN_GEOMETRIC_PRESENTATION_REPRESENTATION (  '', ( #131 ), #32 ) ;
#41 = LINE ( 'NONE', #129, #17 ) ;
#42 = ORIENTED_EDGE ( 'NONE', *, *, #3, .F. ) ;
#43 = ORIENTED_EDGE ( 'NONE', *, *, #192, .T. ) ;
#44 = COLOUR_RGB ( '',0.2980392156862745057, 0.2980392156862745057, 0.2980392156862745057 ) ;
#45 = ORIENTED_EDGE ( 'NONE', *, *, #121, .F. ) ;
#46 = EDGE_CURVE ( 'NONE', #115, #181, #188, .T. ) ;
#47 = DIMENSIONAL_EXPONENTS ( 1.000000000000000000, 0.000000000000000000, 0.000000000000000000, 0.000000000000000000, 0.000000000000000000, 0.000000000000000000, 0.000000000000000000 ) ;
#48 = DIRECTION ( 'NONE',  ( 1.000000000000000000, 0.000000000000000000, -0.000000000000000000 ) ) ;
#49 = LINE ( 'NONE', #71, #74 ) ;
#50 = CARTESIAN_POINT ( 'NONE',  ( 11.99999999999999822, -0.1250000000000000000, -23.99999999999999645 ) ) ;
#51 = LENGTH_MEASURE_WITH_UNIT ( LENGTH_MEASURE( 0.02539999999999999897 ), #117 );
#52 = VERTEX_POINT ( 'NONE', #113 ) ;
#53 = ORIENTED_EDGE ( 'NONE', *, *, #66, .T. ) ;
#54 =( NAMED_UNIT ( * ) PLANE_ANGLE_UNIT ( ) SI_UNIT ( $, .RADIAN. ) );
#55 = SURFACE_STYLE_USAGE ( .BOTH. , #7 ) ;
#56 = ORIENTED_EDGE ( 'NONE', *, *, #18, .T. ) ;
#57 = DIRECTION ( 'NONE',  ( 1.000000000000000000, 0.000000000000000000, 0.000000000000000000 ) ) ;
#58 = DIRECTION ( 'NONE',  ( 0.000000000000000000, 0.000000000000000000, 1.000000000000000000 ) ) ;
#59 = ORIENTED_EDGE ( 'NONE', *, *, #14, .F. ) ;
#60 = MECHANICAL_DESIGN_GEOMETRIC_PRESENTATION_REPRESENTATION (  '', ( #101 ), #161 ) ;
#61 =( CONVERSION_BASED_UNIT ( 'INCH', #37 ) LENGTH_UNIT ( ) NAMED_UNIT ( #47 ) );
#62 = DIRECTION ( 'NONE',  ( -9.106159978880877395E-17, 0.000000000000000000, -1.000000000000000000 ) ) ;
#63 =( NAMED_UNIT ( * ) SI_UNIT ( $, .STERADIAN. ) SOLID_ANGLE_UNIT ( ) );
#64 = VERTEX_POINT ( 'NONE', #90 ) ;
#65 = ORIENTED_EDGE ( 'NONE', *, *, #14, .T. ) ;
#66 = EDGE_CURVE ( 'NONE', #11, #181, #169, .T. ) ;
#67 = FACE_OUTER_BOUND ( 'NONE', #75, .T. ) ;
#68 = LINE ( 'NONE', #177, #29 ) ;
#69 = DIRECTION ( 'NONE',  ( -1.000000000000000000, 0.000000000000000000, 1.821231995776175479E-16 ) ) ;
#70 = ADVANCED_FACE ( 'NONE', ( #203 ), #159, .F. ) ;
#71 = CARTESIAN_POINT ( 'NONE',  ( -11.99999999999999822, 0.1250000000000000000, 24.00000000000000711 ) ) ;
#72 = EDGE_LOOP ( 'NONE', ( #53, #210, #202, #172 ) ) ;
#73 = CARTESIAN_POINT ( 'NONE',  ( 11.99999999999999822, 0.1250000000000000000, -23.99999999999999645 ) ) ;
#74 = VECTOR ( 'NONE', #148, 39.37007874015748143 ) ;
#75 = EDGE_LOOP ( 'NONE', ( #168, #97, #178, #198 ) ) ;
#76 = FILL_AREA_STYLE ('',( #4 ) ) ;
#77 = EDGE_LOOP ( 'NONE', ( #122, #130, #109, #35 ) ) ;
#78 = PRESENTATION_STYLE_ASSIGNMENT (( #156 ) ) ;
#79 = CARTESIAN_POINT ( 'NONE',  ( 11.99999999999999822, -0.1250000000000000000, -23.99999999999999645 ) ) ;
#80 = CARTESIAN_POINT ( 'NONE',  ( 12.00000000000000711, 0.1250000000000000000, 24.00000000000000711 ) ) ;
#81 = DIRECTION ( 'NONE',  ( -1.000000000000000000, 0.000000000000000000, -0.000000000000000000 ) ) ;
#82 =( LENGTH_UNIT ( ) NAMED_UNIT ( * ) SI_UNIT ( $, .METRE. ) );
#83 = EDGE_CURVE ( 'NONE', #141, #11, #23, .T. ) ;
#84 = UNCERTAINTY_MEASURE_WITH_UNIT (LENGTH_MEASURE( 1.000000000000000082E-05 ), #137, 'distance_accuracy_value', 'NONE');
#85 =( NAMED_UNIT ( * ) PLANE_ANGLE_UNIT ( ) SI_UNIT ( $, .RADIAN. ) );
#86 = VECTOR ( 'NONE', #99, 39.37007874015748143 ) ;
#87 = PRESENTATION_STYLE_ASSIGNMENT (( #55 ) ) ;
#88 = AXIS2_PLACEMENT_3D ( 'NONE', #12, #143, #48 ) ;
#89 = SURFACE_STYLE_FILL_AREA ( #180 ) ;
#90 = CARTESIAN_POINT ( 'NONE',  ( -12.00000000000000355, 0.1250000000000000000, -23.99999999999999645 ) ) ;
#91 = PRODUCT_CONTEXT ( 'NONE', #126, 'mechanical' ) ;
#92 = LINE ( 'NONE', #79, #114 ) ;
#93 = SHAPE_DEFINITION_REPRESENTATION ( #104, #165 ) ;
#94 = DIMENSIONAL_EXPONENTS ( 1.000000000000000000, 0.000000000000000000, 0.000000000000000000, 0.000000000000000000, 0.000000000000000000, 0.000000000000000000, 0.000000000000000000 ) ;
#95 = CARTESIAN_POINT ( 'NONE',  ( 11.99999999999999822, 0.1250000000000000000, -23.99999999999999645 ) ) ;
#96 = CLOSED_SHELL ( 'NONE', ( #98, #166, #170, #70, #209, #158 ) ) ;
#97 = ORIENTED_EDGE ( 'NONE', *, *, #150, .F. ) ;
#98 = ADVANCED_FACE ( 'NONE', ( #67 ), #200, .F. ) ;
#99 = DIRECTION ( 'NONE',  ( 1.000000000000000000, -0.000000000000000000, -0.000000000000000000 ) ) ;
#100 = LINE ( 'NONE', #162, #118 ) ;
#101 = STYLED_ITEM ( 'NONE', ( #78 ), #103 ) ;
#102 = DIRECTION ( 'NONE',  ( 1.821231995776175479E-16, 0.000000000000000000, 1.000000000000000000 ) ) ;
#103 = MANIFOLD_SOLID_BREP ( 'Boss-Extrude1', #96 ) ;
#104 = PRODUCT_DEFINITION_SHAPE ( 'NONE', 'NONE',  #125 ) ;
#105 = VECTOR ( 'NONE', #149, 39.37007874015748143 ) ;
#106 = PLANE ( 'NONE',  #208 ) ;
#107 =( NAMED_UNIT ( * ) SI_UNIT ( $, .STERADIAN. ) SOLID_ANGLE_UNIT ( ) );
#108 = AXIS2_PLACEMENT_3D ( 'NONE', #167, #58, #57 ) ;
#109 = ORIENTED_EDGE ( 'NONE', *, *, #197, .F. ) ;
#110 = VERTEX_POINT ( 'NONE', #138 ) ;
#111 = DIRECTION ( 'NONE',  ( -0.000000000000000000, -1.000000000000000000, -0.000000000000000000 ) ) ;
#112 = SURFACE_STYLE_FILL_AREA ( #76 ) ;
#113 = CARTESIAN_POINT ( 'NONE',  ( -11.99999999999999822, -0.1250000000000000000, 24.00000000000000711 ) ) ;
#114 = VECTOR ( 'NONE', #173, 39.37007874015748143 ) ;
#115 = VERTEX_POINT ( 'NONE', #73 ) ;
#116 = DIRECTION ( 'NONE',  ( 1.000000000000000000, 0.000000000000000000, -9.106159978880877395E-17 ) ) ;
#117 =( LENGTH_UNIT ( ) NAMED_UNIT ( * ) SI_UNIT ( $, .METRE. ) );
#118 = VECTOR ( 'NONE', #211, 39.37007874015748143 ) ;
#119 = UNCERTAINTY_MEASURE_WITH_UNIT (LENGTH_MEASURE( 1.000000000000000082E-05 ), #61, 'distance_accuracy_value', 'NONE');
#120 = PLANE ( 'NONE',  #128 ) ;
#121 = EDGE_CURVE ( 'NONE', #64, #155, #154, .T. ) ;
#122 = ORIENTED_EDGE ( 'NONE', *, *, #22, .T. ) ;
#123 = DIRECTION ( 'NONE',  ( 0.000000000000000000, -1.000000000000000000, 0.000000000000000000 ) ) ;
#124 = PRODUCT_DEFINITION_FORMATION_WITH_SPECIFIED_SOURCE ( 'ANY', '', #205, .NOT_KNOWN. ) ;
#125 = PRODUCT_DEFINITION ( 'UNKNOWN', '', #124, #201 ) ;
#126 = APPLICATION_CONTEXT ( 'automotive_design' ) ;
#127 = ORIENTED_EDGE ( 'NONE', *, *, #3, .T. ) ;
#128 = AXIS2_PLACEMENT_3D ( 'NONE', #152, #69, #102 ) ;
#129 = CARTESIAN_POINT ( 'NONE',  ( -12.00000000000000355, 0.1250000000000000000, -23.99999999999999645 ) ) ;
#130 = ORIENTED_EDGE ( 'NONE', *, *, #83, .F. ) ;
#131 = STYLED_ITEM ( 'NONE', ( #87 ), #165 ) ;
#132 = ORIENTED_EDGE ( 'NONE', *, *, #153, .F. ) ;
#133 = LINE ( 'NONE', #175, #187 ) ;
#134 = VECTOR ( 'NONE', #142, 39.37007874015748143 ) ;
#135 = CARTESIAN_POINT ( 'NONE',  ( 0.000000000000000000, -0.1250000000000000000, 0.000000000000000000 ) ) ;
#136 = ORIENTED_EDGE ( 'NONE', *, *, #22, .F. ) ;
#137 =( CONVERSION_BASED_UNIT ( 'INCH', #51 ) LENGTH_UNIT ( ) NAMED_UNIT ( #94 ) );
#138 = CARTESIAN_POINT ( 'NONE',  ( -11.99999999999999822, 0.1250000000000000000, 24.00000000000000711 ) ) ;
#139 = AXIS2_PLACEMENT_3D ( 'NONE', #199, #116, #62 ) ;
#140 = APPLICATION_PROTOCOL_DEFINITION ( 'draft international standard', 'automotive_design', 1998, #38 ) ;
#141 = VERTEX_POINT ( 'NONE', #207 ) ;
#142 = DIRECTION ( 'NONE',  ( -0.000000000000000000, -1.000000000000000000, -0.000000000000000000 ) ) ;
#143 = DIRECTION ( 'NONE',  ( 0.000000000000000000, -0.000000000000000000, 1.000000000000000000 ) ) ;
#144 = DIMENSIONAL_EXPONENTS ( 1.000000000000000000, 0.000000000000000000, 0.000000000000000000, 0.000000000000000000, 0.000000000000000000, 0.000000000000000000, 0.000000000000000000 ) ;
#145 = ORIENTED_EDGE ( 'NONE', *, *, #46, .T. ) ;
#146 = ORIENTED_EDGE ( 'NONE', *, *, #197, .T. ) ;
#147 = AXIS2_PLACEMENT_3D ( 'NONE', #135, #206, #194 ) ;
#148 = DIRECTION ( 'NONE',  ( -0.000000000000000000, -1.000000000000000000, -0.000000000000000000 ) ) ;
#149 = DIRECTION ( 'NONE',  ( -0.000000000000000000, -1.000000000000000000, -0.000000000000000000 ) ) ;
#150 = EDGE_CURVE ( 'NONE', #110, #52, #49, .T. ) ;
#151 = VECTOR ( 'NONE', #27, 39.37007874015748143 ) ;
#152 = CARTESIAN_POINT ( 'NONE',  ( 11.99999999999999822, 0.1250000000000000000, -23.99999999999999645 ) ) ;
#153 = EDGE_CURVE ( 'NONE', #155, #52, #133, .T. ) ;
#154 = LINE ( 'NONE', #33, #105 ) ;
#155 = VERTEX_POINT ( 'NONE', #31 ) ;
#156 = SURFACE_STYLE_USAGE ( .BOTH. , #171 ) ;
#157 = DIRECTION ( 'NONE',  ( -1.000000000000000000, 0.000000000000000000, 0.000000000000000000 ) ) ;
#158 = ADVANCED_FACE ( 'NONE', ( #160 ), #15, .T. ) ;
#159 = PLANE ( 'NONE',  #88 ) ;
#160 = FACE_OUTER_BOUND ( 'NONE', #6, .T. ) ;
#161 =( GEOMETRIC_REPRESENTATION_CONTEXT ( 3 ) GLOBAL_UNCERTAINTY_ASSIGNED_CONTEXT ( ( #84 ) ) GLOBAL_UNIT_ASSIGNED_CONTEXT ( ( #137, #85, #107 ) ) REPRESENTATION_CONTEXT ( 'NONE', 'WORKASPACE' ) );
#162 = CARTESIAN_POINT ( 'NONE',  ( 12.00000000000000711, 0.1250000000000000000, 24.00000000000000711 ) ) ;
#163 = CARTESIAN_POINT ( 'NONE',  ( 0.000000000000000000, 0.1250000000000000000, 0.000000000000000000 ) ) ;
#164 = FACE_OUTER_BOUND ( 'NONE', #2, .T. ) ;
#165 = ADVANCED_BREP_SHAPE_REPRESENTATION ( 'WCP-0295 Rev1', ( #103, #108 ), #191 ) ;
#166 = ADVANCED_FACE ( 'NONE', ( #176 ), #190, .F. ) ;
#167 = CARTESIAN_POINT ( 'NONE',  ( 0.000000000000000000, 0.000000000000000000, 0.000000000000000000 ) ) ;
#168 = ORIENTED_EDGE ( 'NONE', *, *, #153, .T. ) ;
#169 = LINE ( 'NONE', #184, #151 ) ;
#170 = ADVANCED_FACE ( 'NONE', ( #204 ), #120, .F. ) ;
#171 = SURFACE_SIDE_STYLE ('',( #112 ) ) ;
#172 = ORIENTED_EDGE ( 'NONE', *, *, #83, .T. ) ;
#173 = DIRECTION ( 'NONE',  ( -1.000000000000000000, 0.000000000000000000, 0.000000000000000000 ) ) ;
#174 = LINE ( 'NONE', #185, #86 ) ;
#175 = CARTESIAN_POINT ( 'NONE',  ( -12.00000000000000355, -0.1250000000000000000, -23.99999999999999645 ) ) ;
#176 = FACE_OUTER_BOUND ( 'NONE', #77, .T. ) ;
#177 = CARTESIAN_POINT ( 'NONE',  ( 11.99999999999999822, 0.1250000000000000000, -23.99999999999999645 ) ) ;
#178 = ORIENTED_EDGE ( 'NONE', *, *, #18, .F. ) ;
#179 = PRESENTATION_LAYER_ASSIGNMENT (  '', '', ( #101 ) ) ;
#180 = FILL_AREA_STYLE ('',( #5 ) ) ;
#181 = VERTEX_POINT ( 'NONE', #50 ) ;
#182 = CARTESIAN_POINT ( 'NONE',  ( 11.99999999999999822, 0.1250000000000000000, -23.99999999999999645 ) ) ;
#183 =( LENGTH_UNIT ( ) NAMED_UNIT ( * ) SI_UNIT ( $, .METRE. ) );
#184 = CARTESIAN_POINT ( 'NONE',  ( 11.99999999999999822, -0.1250000000000000000, -23.99999999999999645 ) ) ;
#185 = CARTESIAN_POINT ( 'NONE',  ( 12.00000000000000711, -0.1250000000000000000, 24.00000000000000711 ) ) ;
#186 = CARTESIAN_POINT ( 'NONE',  ( 12.00000000000000711, -0.1250000000000000000, 24.00000000000000711 ) ) ;
#187 = VECTOR ( 'NONE', #28, 39.37007874015748143 ) ;
#188 = LINE ( 'NONE', #95, #193 ) ;
#189 = DIRECTION ( 'NONE',  ( -1.821231995776175725E-16, -0.000000000000000000, -1.000000000000000000 ) ) ;
#190 = PLANE ( 'NONE',  #36 ) ;
#191 =( GEOMETRIC_REPRESENTATION_CONTEXT ( 3 ) GLOBAL_UNCERTAINTY_ASSIGNED_CONTEXT ( ( #16 ) ) GLOBAL_UNIT_ASSIGNED_CONTEXT ( ( #19, #54, #20 ) ) REPRESENTATION_CONTEXT ( 'NONE', 'WORKASPACE' ) );
#192 = EDGE_CURVE ( 'NONE', #141, #115, #68, .T. ) ;
#193 = VECTOR ( 'NONE', #111, 39.37007874015748143 ) ;
#194 = DIRECTION ( 'NONE',  ( 0.000000000000000000, -0.000000000000000000, -1.000000000000000000 ) ) ;
#195 = DIRECTION ( 'NONE',  ( 0.000000000000000000, -0.000000000000000000, -1.000000000000000000 ) ) ;
#196 = DIRECTION ( 'NONE',  ( 0.000000000000000000, 0.000000000000000000, -1.000000000000000000 ) ) ;
#197 = EDGE_CURVE ( 'NONE', #110, #141, #100, .T. ) ;
#198 = ORIENTED_EDGE ( 'NONE', *, *, #121, .T. ) ;
#199 = CARTESIAN_POINT ( 'NONE',  ( -12.00000000000000355, 0.1250000000000000000, -23.99999999999999645 ) ) ;
#200 = PLANE ( 'NONE',  #139 ) ;
#201 = PRODUCT_DEFINITION_CONTEXT ( 'detailed design', #38, 'design' ) ;
#202 = ORIENTED_EDGE ( 'NONE', *, *, #192, .F. ) ;
#203 = FACE_OUTER_BOUND ( 'NONE', #26, .T. ) ;
#204 = FACE_OUTER_BOUND ( 'NONE', #72, .T. ) ;
#205 = PRODUCT ( 'WCP-0295 Rev1', 'WCP-0295 Rev1', '', ( #91 ) ) ;
#206 = DIRECTION ( 'NONE',  ( 0.000000000000000000, -1.000000000000000000, 0.000000000000000000 ) ) ;
#207 = CARTESIAN_POINT ( 'NONE',  ( 12.00000000000000711, 0.1250000000000000000, 24.00000000000000711 ) ) ;
#208 = AXIS2_PLACEMENT_3D ( 'NONE', #163, #123, #195 ) ;
#209 = ADVANCED_FACE ( 'NONE', ( #164 ), #106, .F. ) ;
#210 = ORIENTED_EDGE ( 'NONE', *, *, #46, .F. ) ;
#211 = DIRECTION ( 'NONE',  ( 1.000000000000000000, -0.000000000000000000, -0.000000000000000000 ) ) ;
ENDSEC;
END-ISO-10303-21;
