ISO-10303-21;
HEADER;
FILE_DESCRIPTION (( 'STEP AP214' ),
    '1' );
FILE_NAME ('WCP-0294 Rev1.step',
    '2023-12-27T21:22:19',
    ( '' ),
    ( '' ),
    'SwSTEP 2.0',
    'SolidWorks 2022',
    '' );
FILE_SCHEMA (( 'AUTOMOTIVE_DESIGN' ));
ENDSEC;

DATA;
#1 = ADVANCED_BREP_SHAPE_REPRESENTATION ( 'WCP-0294 Rev1', ( #174, #107 ), #77 ) ;
#2 = SURFACE_STYLE_FILL_AREA ( #192 ) ;
#3 = ORIENTED_EDGE ( 'NONE', *, *, #14, .T. ) ;
#4 = ORIENTED_EDGE ( 'NONE', *, *, #62, .F. ) ;
#5 = FACE_OUTER_BOUND ( 'NONE', #146, .T. ) ;
#6 = DIRECTION ( 'NONE',  ( 0.000000000000000000, -0.000000000000000000, 1.000000000000000000 ) ) ;
#7 = CARTESIAN_POINT ( 'NONE',  ( -12.00000000000000355, -0.06250000000000000000, -23.99999999999999645 ) ) ;
#8 = CARTESIAN_POINT ( 'NONE',  ( 11.99999999999999822, 0.06250000000000000000, -23.99999999999999645 ) ) ;
#9 = ORIENTED_EDGE ( 'NONE', *, *, #14, .F. ) ;
#10 = FACE_OUTER_BOUND ( 'NONE', #204, .T. ) ;
#11 =( LENGTH_UNIT ( ) NAMED_UNIT ( * ) SI_UNIT ( $, .METRE. ) );
#12 = DIRECTION ( 'NONE',  ( -9.106159978880877395E-17, 0.000000000000000000, -1.000000000000000000 ) ) ;
#13 =( NAMED_UNIT ( * ) SI_UNIT ( $, .STERADIAN. ) SOLID_ANGLE_UNIT ( ) );
#14 = EDGE_CURVE ( 'NONE', #16, #97, #54, .T. ) ;
#15 = VECTOR ( 'NONE', #117, 39.37007874015748143 ) ;
#16 = VERTEX_POINT ( 'NONE', #36 ) ;
#17 = ORIENTED_EDGE ( 'NONE', *, *, #111, .T. ) ;
#18 = VECTOR ( 'NONE', #90, 39.37007874015748143 ) ;
#19 = ORIENTED_EDGE ( 'NONE', *, *, #111, .F. ) ;
#20 = DIRECTION ( 'NONE',  ( 0.000000000000000000, -0.000000000000000000, -1.000000000000000000 ) ) ;
#21 = DIMENSIONAL_EXPONENTS ( 1.000000000000000000, 0.000000000000000000, 0.000000000000000000, 0.000000000000000000, 0.000000000000000000, 0.000000000000000000, 0.000000000000000000 ) ;
#22 = EDGE_CURVE ( 'NONE', #153, #98, #102, .T. ) ;
#23 = CARTESIAN_POINT ( 'NONE',  ( 12.00000000000000711, 0.06250000000000000000, 24.00000000000000711 ) ) ;
#24 = VECTOR ( 'NONE', #29, 39.37007874015748143 ) ;
#25 = CARTESIAN_POINT ( 'NONE',  ( 11.99999999999999822, 0.06250000000000000000, -23.99999999999999645 ) ) ;
#26 = SURFACE_SIDE_STYLE ('',( #63 ) ) ;
#27 = AXIS2_PLACEMENT_3D ( 'NONE', #76, #169, #12 ) ;
#28 = CARTESIAN_POINT ( 'NONE',  ( -11.99999999999999822, -0.06250000000000000000, 24.00000000000000711 ) ) ;
#29 = DIRECTION ( 'NONE',  ( 9.106159978880878627E-17, 0.000000000000000000, 1.000000000000000000 ) ) ;
#30 =( GEOMETRIC_REPRESENTATION_CONTEXT ( 3 ) GLOBAL_UNCERTAINTY_ASSIGNED_CONTEXT ( ( #203 ) ) GLOBAL_UNIT_ASSIGNED_CONTEXT ( ( #175, #173, #13 ) ) REPRESENTATION_CONTEXT ( 'NONE', 'WORKASPACE' ) );
#31 = ORIENTED_EDGE ( 'NONE', *, *, #96, .T. ) ;
#32 = DIRECTION ( 'NONE',  ( 1.000000000000000000, 0.000000000000000000, 0.000000000000000000 ) ) ;
#33 = EDGE_CURVE ( 'NONE', #153, #133, #161, .T. ) ;
#34 = CARTESIAN_POINT ( 'NONE',  ( 11.99999999999999822, -0.06250000000000000000, -23.99999999999999645 ) ) ;
#35 =( GEOMETRIC_REPRESENTATION_CONTEXT ( 3 ) GLOBAL_UNCERTAINTY_ASSIGNED_CONTEXT ( ( #99 ) ) GLOBAL_UNIT_ASSIGNED_CONTEXT ( ( #157, #45, #86 ) ) REPRESENTATION_CONTEXT ( 'NONE', 'WORKASPACE' ) );
#36 = CARTESIAN_POINT ( 'NONE',  ( 11.99999999999999822, -0.06250000000000000000, -23.99999999999999645 ) ) ;
#37 = ORIENTED_EDGE ( 'NONE', *, *, #125, .F. ) ;
#38 = CARTESIAN_POINT ( 'NONE',  ( 0.000000000000000000, 0.06250000000000000000, 0.000000000000000000 ) ) ;
#39 = ORIENTED_EDGE ( 'NONE', *, *, #149, .T. ) ;
#40 =( LENGTH_UNIT ( ) NAMED_UNIT ( * ) SI_UNIT ( $, .METRE. ) );
#41 = CARTESIAN_POINT ( 'NONE',  ( -12.00000000000000355, -0.06250000000000000000, -23.99999999999999645 ) ) ;
#42 = PLANE ( 'NONE',  #139 ) ;
#43 = UNCERTAINTY_MEASURE_WITH_UNIT (LENGTH_MEASURE( 1.000000000000000082E-05 ), #155, 'distance_accuracy_value', 'NONE');
#44 = SURFACE_STYLE_USAGE ( .BOTH. , #26 ) ;
#45 =( NAMED_UNIT ( * ) PLANE_ANGLE_UNIT ( ) SI_UNIT ( $, .RADIAN. ) );
#46 = ORIENTED_EDGE ( 'NONE', *, *, #141, .T. ) ;
#47 = APPLICATION_PROTOCOL_DEFINITION ( 'draft international standard', 'automotive_design', 1998, #95 ) ;
#48 = ORIENTED_EDGE ( 'NONE', *, *, #211, .F. ) ;
#49 = PRODUCT_CONTEXT ( 'NONE', #178, 'mechanical' ) ;
#50 = PRODUCT_DEFINITION_FORMATION_WITH_SPECIFIED_SOURCE ( 'ANY', '', #108, .NOT_KNOWN. ) ;
#51 = ORIENTED_EDGE ( 'NONE', *, *, #22, .F. ) ;
#52 = EDGE_CURVE ( 'NONE', #179, #97, #182, .T. ) ;
#53 = ORIENTED_EDGE ( 'NONE', *, *, #33, .T. ) ;
#54 = LINE ( 'NONE', #34, #176 ) ;
#55 = ADVANCED_FACE ( 'NONE', ( #166 ), #130, .T. ) ;
#56 = ORIENTED_EDGE ( 'NONE', *, *, #149, .F. ) ;
#57 = DIRECTION ( 'NONE',  ( 0.000000000000000000, 0.000000000000000000, -1.000000000000000000 ) ) ;
#58 = ORIENTED_EDGE ( 'NONE', *, *, #141, .F. ) ;
#59 = DIRECTION ( 'NONE',  ( -1.000000000000000000, 0.000000000000000000, 0.000000000000000000 ) ) ;
#60 = CARTESIAN_POINT ( 'NONE',  ( 11.99999999999999822, 0.06250000000000000000, -23.99999999999999645 ) ) ;
#61 = PRESENTATION_STYLE_ASSIGNMENT (( #44 ) ) ;
#62 = EDGE_CURVE ( 'NONE', #165, #133, #201, .T. ) ;
#63 = SURFACE_STYLE_FILL_AREA ( #154 ) ;
#64 = SURFACE_SIDE_STYLE ('',( #2 ) ) ;
#65 =( LENGTH_UNIT ( ) NAMED_UNIT ( * ) SI_UNIT ( $, .METRE. ) );
#66 = PRESENTATION_STYLE_ASSIGNMENT (( #78 ) ) ;
#67 = ORIENTED_EDGE ( 'NONE', *, *, #167, .T. ) ;
#68 = CARTESIAN_POINT ( 'NONE',  ( 12.00000000000000711, 0.06250000000000000000, 24.00000000000000711 ) ) ;
#69 = DIRECTION ( 'NONE',  ( 0.000000000000000000, -1.000000000000000000, 0.000000000000000000 ) ) ;
#70 = CARTESIAN_POINT ( 'NONE',  ( 11.99999999999999822, 0.06250000000000000000, -23.99999999999999645 ) ) ;
#71 = DIRECTION ( 'NONE',  ( -1.000000000000000000, 0.000000000000000000, -0.000000000000000000 ) ) ;
#72 = DIRECTION ( 'NONE',  ( 1.000000000000000000, 0.000000000000000000, -0.000000000000000000 ) ) ;
#73 = ADVANCED_FACE ( 'NONE', ( #5 ), #200, .F. ) ;
#74 = COLOUR_RGB ( '',1.000000000000000000, 1.000000000000000000, 1.000000000000000000 ) ;
#75 = CARTESIAN_POINT ( 'NONE',  ( 12.00000000000000711, 0.06250000000000000000, 24.00000000000000711 ) ) ;
#76 = CARTESIAN_POINT ( 'NONE',  ( -12.00000000000000355, 0.06250000000000000000, -23.99999999999999645 ) ) ;
#77 =( GEOMETRIC_REPRESENTATION_CONTEXT ( 3 ) GLOBAL_UNCERTAINTY_ASSIGNED_CONTEXT ( ( #43 ) ) GLOBAL_UNIT_ASSIGNED_CONTEXT ( ( #155, #144, #177 ) ) REPRESENTATION_CONTEXT ( 'NONE', 'WORKASPACE' ) );
#78 = SURFACE_STYLE_USAGE ( .BOTH. , #64 ) ;
#79 = VECTOR ( 'NONE', #148, 39.37007874015748143 ) ;
#80 = CARTESIAN_POINT ( 'NONE',  ( -12.00000000000000355, 0.06250000000000000000, -23.99999999999999645 ) ) ;
#81 = DIRECTION ( 'NONE',  ( 0.000000000000000000, -0.000000000000000000, -1.000000000000000000 ) ) ;
#82 = LINE ( 'NONE', #84, #143 ) ;
#83 = VECTOR ( 'NONE', #147, 39.37007874015748143 ) ;
#84 = CARTESIAN_POINT ( 'NONE',  ( 12.00000000000000711, 0.06250000000000000000, 24.00000000000000711 ) ) ;
#85 = ORIENTED_EDGE ( 'NONE', *, *, #52, .T. ) ;
#86 =( NAMED_UNIT ( * ) SI_UNIT ( $, .STERADIAN. ) SOLID_ANGLE_UNIT ( ) );
#87 = DIRECTION ( 'NONE',  ( -1.000000000000000000, 0.000000000000000000, 1.821231995776175479E-16 ) ) ;
#88 = COLOUR_RGB ( '',1.000000000000000000, 1.000000000000000000, 1.000000000000000000 ) ;
#89 = ADVANCED_FACE ( 'NONE', ( #164 ), #199, .F. ) ;
#90 = DIRECTION ( 'NONE',  ( 9.106159978880878627E-17, 0.000000000000000000, 1.000000000000000000 ) ) ;
#91 = PRODUCT_DEFINITION_CONTEXT ( 'detailed design', #95, 'design' ) ;
#92 = FILL_AREA_STYLE_COLOUR ( '', #88 ) ;
#93 = LENGTH_MEASURE_WITH_UNIT ( LENGTH_MEASURE( 0.02539999999999999897 ), #40 );
#94 = VECTOR ( 'NONE', #120, 39.37007874015748143 ) ;
#95 = APPLICATION_CONTEXT ( 'automotive_design' ) ;
#96 = EDGE_CURVE ( 'NONE', #184, #153, #82, .T. ) ;
#97 = VERTEX_POINT ( 'NONE', #7 ) ;
#98 = VERTEX_POINT ( 'NONE', #70 ) ;
#99 = UNCERTAINTY_MEASURE_WITH_UNIT (LENGTH_MEASURE( 1.000000000000000082E-05 ), #157, 'distance_accuracy_value', 'NONE');
#100 = DIRECTION ( 'NONE',  ( 0.000000000000000000, -1.000000000000000000, 0.000000000000000000 ) ) ;
#101 = CARTESIAN_POINT ( 'NONE',  ( 12.00000000000000711, -0.06250000000000000000, 24.00000000000000711 ) ) ;
#102 = LINE ( 'NONE', #8, #15 ) ;
#103 = ADVANCED_FACE ( 'NONE', ( #132 ), #202, .F. ) ;
#104 = VECTOR ( 'NONE', #170, 39.37007874015748143 ) ;
#105 = DIRECTION ( 'NONE',  ( -1.000000000000000000, 0.000000000000000000, 0.000000000000000000 ) ) ;
#106 = DIRECTION ( 'NONE',  ( 1.821231995776175479E-16, 0.000000000000000000, 1.000000000000000000 ) ) ;
#107 = AXIS2_PLACEMENT_3D ( 'NONE', #123, #171, #32 ) ;
#108 = PRODUCT ( 'WCP-0294 Rev1', 'WCP-0294 Rev1', '', ( #49 ) ) ;
#109 = FACE_OUTER_BOUND ( 'NONE', #118, .T. ) ;
#110 = CARTESIAN_POINT ( 'NONE',  ( 11.99999999999999822, 0.06250000000000000000, -23.99999999999999645 ) ) ;
#111 = EDGE_CURVE ( 'NONE', #98, #179, #168, .T. ) ;
#112 = ORIENTED_EDGE ( 'NONE', *, *, #167, .F. ) ;
#113 = VECTOR ( 'NONE', #59, 39.37007874015748143 ) ;
#114 = EDGE_LOOP ( 'NONE', ( #67, #31, #183, #17 ) ) ;
#115 = CARTESIAN_POINT ( 'NONE',  ( 0.000000000000000000, -0.06250000000000000000, 0.000000000000000000 ) ) ;
#116 = EDGE_LOOP ( 'NONE', ( #56, #9, #58, #4 ) ) ;
#117 = DIRECTION ( 'NONE',  ( -1.821231995776175725E-16, -0.000000000000000000, -1.000000000000000000 ) ) ;
#118 = EDGE_LOOP ( 'NONE', ( #39, #48, #112, #85 ) ) ;
#119 = STYLED_ITEM ( 'NONE', ( #66 ), #1 ) ;
#120 = DIRECTION ( 'NONE',  ( -1.821231995776175725E-16, -0.000000000000000000, -1.000000000000000000 ) ) ;
#121 = LENGTH_MEASURE_WITH_UNIT ( LENGTH_MEASURE( 0.02539999999999999897 ), #11 );
#122 = LINE ( 'NONE', #60, #104 ) ;
#123 = CARTESIAN_POINT ( 'NONE',  ( 0.000000000000000000, 0.000000000000000000, 0.000000000000000000 ) ) ;
#124 = AXIS2_PLACEMENT_3D ( 'NONE', #23, #57, #71 ) ;
#125 = EDGE_CURVE ( 'NONE', #98, #16, #122, .T. ) ;
#126 = SHAPE_DEFINITION_REPRESENTATION ( #208, #1 ) ;
#127 = VECTOR ( 'NONE', #205, 39.37007874015748143 ) ;
#128 = EDGE_LOOP ( 'NONE', ( #197, #152, #159, #160 ) ) ;
#129 = ADVANCED_FACE ( 'NONE', ( #109 ), #191, .F. ) ;
#130 = PLANE ( 'NONE',  #194 ) ;
#131 = DIRECTION ( 'NONE',  ( -0.000000000000000000, -1.000000000000000000, -0.000000000000000000 ) ) ;
#132 = FACE_OUTER_BOUND ( 'NONE', #128, .T. ) ;
#133 = VERTEX_POINT ( 'NONE', #134 ) ;
#134 = CARTESIAN_POINT ( 'NONE',  ( 12.00000000000000711, -0.06250000000000000000, 24.00000000000000711 ) ) ;
#135 = STYLED_ITEM ( 'NONE', ( #61 ), #174 ) ;
#136 = CARTESIAN_POINT ( 'NONE',  ( -11.99999999999999822, 0.06250000000000000000, 24.00000000000000711 ) ) ;
#137 = CARTESIAN_POINT ( 'NONE',  ( 11.99999999999999822, -0.06250000000000000000, -23.99999999999999645 ) ) ;
#138 = LINE ( 'NONE', #137, #94 ) ;
#139 = AXIS2_PLACEMENT_3D ( 'NONE', #207, #87, #106 ) ;
#140 = LENGTH_MEASURE_WITH_UNIT ( LENGTH_MEASURE( 0.02539999999999999897 ), #65 );
#141 = EDGE_CURVE ( 'NONE', #133, #16, #138, .T. ) ;
#142 = FILL_AREA_STYLE_COLOUR ( '', #74 ) ;
#143 = VECTOR ( 'NONE', #151, 39.37007874015748143 ) ;
#144 =( NAMED_UNIT ( * ) PLANE_ANGLE_UNIT ( ) SI_UNIT ( $, .RADIAN. ) );
#145 = DIMENSIONAL_EXPONENTS ( 1.000000000000000000, 0.000000000000000000, 0.000000000000000000, 0.000000000000000000, 0.000000000000000000, 0.000000000000000000, 0.000000000000000000 ) ;
#146 = EDGE_LOOP ( 'NONE', ( #3, #180, #19, #163 ) ) ;
#147 = DIRECTION ( 'NONE',  ( -0.000000000000000000, -1.000000000000000000, -0.000000000000000000 ) ) ;
#148 = DIRECTION ( 'NONE',  ( 1.000000000000000000, -0.000000000000000000, -0.000000000000000000 ) ) ;
#149 = EDGE_CURVE ( 'NONE', #97, #165, #187, .T. ) ;
#150 = DIMENSIONAL_EXPONENTS ( 1.000000000000000000, 0.000000000000000000, 0.000000000000000000, 0.000000000000000000, 0.000000000000000000, 0.000000000000000000, 0.000000000000000000 ) ;
#151 = DIRECTION ( 'NONE',  ( 1.000000000000000000, -0.000000000000000000, -0.000000000000000000 ) ) ;
#152 = ORIENTED_EDGE ( 'NONE', *, *, #33, .F. ) ;
#153 = VERTEX_POINT ( 'NONE', #75 ) ;
#154 = FILL_AREA_STYLE ('',( #92 ) ) ;
#155 =( CONVERSION_BASED_UNIT ( 'INCH', #121 ) LENGTH_UNIT ( ) NAMED_UNIT ( #21 ) );
#156 = LINE ( 'NONE', #188, #127 ) ;
#157 =( CONVERSION_BASED_UNIT ( 'INCH', #93 ) LENGTH_UNIT ( ) NAMED_UNIT ( #150 ) );
#158 = VECTOR ( 'NONE', #131, 39.37007874015748143 ) ;
#159 = ORIENTED_EDGE ( 'NONE', *, *, #96, .F. ) ;
#160 = ORIENTED_EDGE ( 'NONE', *, *, #211, .T. ) ;
#161 = LINE ( 'NONE', #68, #158 ) ;
#162 = PRESENTATION_LAYER_ASSIGNMENT (  '', '', ( #135 ) ) ;
#163 = ORIENTED_EDGE ( 'NONE', *, *, #125, .T. ) ;
#164 = FACE_OUTER_BOUND ( 'NONE', #114, .T. ) ;
#165 = VERTEX_POINT ( 'NONE', #28 ) ;
#166 = FACE_OUTER_BOUND ( 'NONE', #116, .T. ) ;
#167 = EDGE_CURVE ( 'NONE', #179, #184, #209, .T. ) ;
#168 = LINE ( 'NONE', #110, #113 ) ;
#169 = DIRECTION ( 'NONE',  ( 1.000000000000000000, 0.000000000000000000, -9.106159978880877395E-17 ) ) ;
#170 = DIRECTION ( 'NONE',  ( -0.000000000000000000, -1.000000000000000000, -0.000000000000000000 ) ) ;
#171 = DIRECTION ( 'NONE',  ( 0.000000000000000000, 0.000000000000000000, 1.000000000000000000 ) ) ;
#172 = PRESENTATION_LAYER_ASSIGNMENT (  '', '', ( #119 ) ) ;
#173 =( NAMED_UNIT ( * ) PLANE_ANGLE_UNIT ( ) SI_UNIT ( $, .RADIAN. ) );
#174 = MANIFOLD_SOLID_BREP ( 'Boss-Extrude1', #198 ) ;
#175 =( CONVERSION_BASED_UNIT ( 'INCH', #140 ) LENGTH_UNIT ( ) NAMED_UNIT ( #145 ) );
#176 = VECTOR ( 'NONE', #105, 39.37007874015748143 ) ;
#177 =( NAMED_UNIT ( * ) SI_UNIT ( $, .STERADIAN. ) SOLID_ANGLE_UNIT ( ) );
#178 = APPLICATION_CONTEXT ( 'automotive_design' ) ;
#179 = VERTEX_POINT ( 'NONE', #189 ) ;
#180 = ORIENTED_EDGE ( 'NONE', *, *, #52, .F. ) ;
#181 = MECHANICAL_DESIGN_GEOMETRIC_PRESENTATION_REPRESENTATION (  '', ( #135 ), #35 ) ;
#182 = LINE ( 'NONE', #80, #83 ) ;
#183 = ORIENTED_EDGE ( 'NONE', *, *, #22, .T. ) ;
#184 = VERTEX_POINT ( 'NONE', #136 ) ;
#185 = PRODUCT_DEFINITION ( 'UNKNOWN', '', #50, #91 ) ;
#186 = AXIS2_PLACEMENT_3D ( 'NONE', #25, #6, #72 ) ;
#187 = LINE ( 'NONE', #41, #18 ) ;
#188 = CARTESIAN_POINT ( 'NONE',  ( -11.99999999999999822, 0.06250000000000000000, 24.00000000000000711 ) ) ;
#189 = CARTESIAN_POINT ( 'NONE',  ( -12.00000000000000355, 0.06250000000000000000, -23.99999999999999645 ) ) ;
#190 = PRODUCT_RELATED_PRODUCT_CATEGORY ( 'part', '', ( #108 ) ) ;
#191 = PLANE ( 'NONE',  #27 ) ;
#192 = FILL_AREA_STYLE ('',( #142 ) ) ;
#193 = MECHANICAL_DESIGN_GEOMETRIC_PRESENTATION_REPRESENTATION (  '', ( #119 ), #30 ) ;
#194 = AXIS2_PLACEMENT_3D ( 'NONE', #115, #100, #81 ) ;
#195 = APPLICATION_PROTOCOL_DEFINITION ( 'draft international standard', 'automotive_design', 1998, #178 ) ;
#196 = ADVANCED_FACE ( 'NONE', ( #10 ), #42, .F. ) ;
#197 = ORIENTED_EDGE ( 'NONE', *, *, #62, .T. ) ;
#198 = CLOSED_SHELL ( 'NONE', ( #129, #103, #196, #73, #89, #55 ) ) ;
#199 = PLANE ( 'NONE',  #206 ) ;
#200 = PLANE ( 'NONE',  #186 ) ;
#201 = LINE ( 'NONE', #101, #79 ) ;
#202 = PLANE ( 'NONE',  #124 ) ;
#203 = UNCERTAINTY_MEASURE_WITH_UNIT (LENGTH_MEASURE( 1.000000000000000082E-05 ), #175, 'distance_accuracy_value', 'NONE');
#204 = EDGE_LOOP ( 'NONE', ( #46, #37, #51, #53 ) ) ;
#205 = DIRECTION ( 'NONE',  ( -0.000000000000000000, -1.000000000000000000, -0.000000000000000000 ) ) ;
#206 = AXIS2_PLACEMENT_3D ( 'NONE', #38, #69, #20 ) ;
#207 = CARTESIAN_POINT ( 'NONE',  ( 11.99999999999999822, 0.06250000000000000000, -23.99999999999999645 ) ) ;
#208 = PRODUCT_DEFINITION_SHAPE ( 'NONE', 'NONE',  #185 ) ;
#209 = LINE ( 'NONE', #210, #24 ) ;
#210 = CARTESIAN_POINT ( 'NONE',  ( -12.00000000000000355, 0.06250000000000000000, -23.99999999999999645 ) ) ;
#211 = EDGE_CURVE ( 'NONE', #184, #165, #156, .T. ) ;
ENDSEC;
END-ISO-10303-21;
