ISO-10303-21;
HEADER;
FILE_DESCRIPTION (( 'STEP AP214' ),
    '1' );
FILE_NAME ('WCP-0288.step',
    '2021-10-06T10:19:37',
    ( '' ),
    ( '' ),
    'SwSTEP 2.0',
    'SolidWorks 2020',
    '' );
FILE_SCHEMA (( 'AUTOMOTIVE_DESIGN' ));
ENDSEC;

DATA;
#1 =( LENGTH_UNIT ( ) NAMED_UNIT ( * ) SI_UNIT ( $, .METRE. ) );
#2 = ORIENTED_EDGE ( 'NONE', *, *, #183, .F. ) ;
#3 = FILL_AREA_STYLE_COLOUR ( '', #201 ) ;
#4 = ORIENTED_EDGE ( 'NONE', *, *, #59, .T. ) ;
#5 = EDGE_CURVE ( 'NONE', #27, #94, #92, .T. ) ;
#6 = MANIFOLD_SOLID_BREP ( 'Boss-Extrude1', #124 ) ;
#7 = DIRECTION ( 'NONE',  ( -1.000000000000000000, -0.000000000000000000, -0.000000000000000000 ) ) ;
#8 = FACE_OUTER_BOUND ( 'NONE', #161, .T. ) ;
#9 = ADVANCED_FACE ( 'NONE', ( #116, #77 ), #143, .F. ) ;
#10 = DIRECTION ( 'NONE',  ( 1.000000000000000000, 0.000000000000000000, 0.000000000000000000 ) ) ;
#11 = DIRECTION ( 'NONE',  ( 0.000000000000000000, 0.000000000000000000, -1.000000000000000000 ) ) ;
#12 = DIRECTION ( 'NONE',  ( -1.000000000000000000, -0.000000000000000000, -0.000000000000000000 ) ) ;
#13 = AXIS2_PLACEMENT_3D ( 'NONE', #56, #190, #172 ) ;
#14 = CARTESIAN_POINT ( 'NONE',  ( -19.68503937007874072, 0.000000000000000000, 0.4773622047244094890 ) ) ;
#15 = DIRECTION ( 'NONE',  ( 1.000000000000000000, 0.000000000000000000, 0.000000000000000000 ) ) ;
#16 = ADVANCED_FACE ( 'NONE', ( #8 ), #25, .F. ) ;
#17 = DIRECTION ( 'NONE',  ( 1.000000000000000000, 0.000000000000000000, 0.000000000000000000 ) ) ;
#18 =( GEOMETRIC_REPRESENTATION_CONTEXT ( 3 ) GLOBAL_UNCERTAINTY_ASSIGNED_CONTEXT ( ( #158 ) ) GLOBAL_UNIT_ASSIGNED_CONTEXT ( ( #82, #129, #215 ) ) REPRESENTATION_CONTEXT ( 'NONE', 'WORKASPACE' ) );
#19 =( NAMED_UNIT ( * ) SI_UNIT ( $, .STERADIAN. ) SOLID_ANGLE_UNIT ( ) );
#20 = FILL_AREA_STYLE ('',( #3 ) ) ;
#21 = SURFACE_SIDE_STYLE ('',( #179 ) ) ;
#22 = ORIENTED_EDGE ( 'NONE', *, *, #168, .F. ) ;
#23 = ADVANCED_BREP_SHAPE_REPRESENTATION ( 'WCP-0288', ( #6, #95 ), #219 ) ;
#24 = VERTEX_POINT ( 'NONE', #52 ) ;
#25 = CYLINDRICAL_SURFACE ( 'NONE', #155, 0.4375000000000000000 ) ;
#26 = PRODUCT_DEFINITION_SHAPE ( 'NONE', 'NONE',  #197 ) ;
#27 = VERTEX_POINT ( 'NONE', #204 ) ;
#28 = ORIENTED_EDGE ( 'NONE', *, *, #5, .T. ) ;
#29 = CARTESIAN_POINT ( 'NONE',  ( -19.68503937007874072, 5.846000960496715646E-17, -0.4773622047244094890 ) ) ;
#30 = APPLICATION_CONTEXT ( 'automotive_design' ) ;
#31 = DIRECTION ( 'NONE',  ( -1.000000000000000000, -0.000000000000000000, -0.000000000000000000 ) ) ;
#32 = CARTESIAN_POINT ( 'NONE',  ( 19.68503937007874072, 5.357829746269670127E-17, -0.4375000000000000000 ) ) ;
#33 = DIRECTION ( 'NONE',  ( 0.000000000000000000, 0.000000000000000000, -1.000000000000000000 ) ) ;
#34 = DIRECTION ( 'NONE',  ( 1.000000000000000000, 0.000000000000000000, 0.000000000000000000 ) ) ;
#35 = CIRCLE ( 'NONE', #166, 0.4773622047244094890 ) ;
#36 = PRESENTATION_STYLE_ASSIGNMENT (( #57 ) ) ;
#37 = ADVANCED_FACE ( 'NONE', ( #67 ), #175, .T. ) ;
#38 = CARTESIAN_POINT ( 'NONE',  ( 0.000000000000000000, 0.000000000000000000, 0.000000000000000000 ) ) ;
#39 =( NAMED_UNIT ( * ) PLANE_ANGLE_UNIT ( ) SI_UNIT ( $, .RADIAN. ) );
#40 = CIRCLE ( 'NONE', #109, 0.4375000000000000000 ) ;
#41 = DIMENSIONAL_EXPONENTS ( 1.000000000000000000, 0.000000000000000000, 0.000000000000000000, 0.000000000000000000, 0.000000000000000000, 0.000000000000000000, 0.000000000000000000 ) ;
#42 = EDGE_LOOP ( 'NONE', ( #169, #61, #113, #114 ) ) ;
#43 = PRODUCT_DEFINITION_CONTEXT ( 'detailed design', #30, 'design' ) ;
#44 = VERTEX_POINT ( 'NONE', #32 ) ;
#45 = FILL_AREA_STYLE_COLOUR ( '', #127 ) ;
#46 = AXIS2_PLACEMENT_3D ( 'NONE', #136, #191, #33 ) ;
#47 = ORIENTED_EDGE ( 'NONE', *, *, #49, .F. ) ;
#48 = VERTEX_POINT ( 'NONE', #153 ) ;
#49 = EDGE_CURVE ( 'NONE', #182, #133, #106, .T. ) ;
#50 = SURFACE_SIDE_STYLE ('',( #216 ) ) ;
#51 = DIRECTION ( 'NONE',  ( -1.000000000000000000, -0.000000000000000000, -0.000000000000000000 ) ) ;
#52 = CARTESIAN_POINT ( 'NONE',  ( 19.68503937007874072, 5.846000960496715646E-17, -0.4773622047244094890 ) ) ;
#53 = CARTESIAN_POINT ( 'NONE',  ( 19.68503937007874072, 0.000000000000000000, 0.000000000000000000 ) ) ;
#54 = CIRCLE ( 'NONE', #85, 0.4773622047244094890 ) ;
#55 = VECTOR ( 'NONE', #220, 39.37007874015748143 ) ;
#56 = CARTESIAN_POINT ( 'NONE',  ( 19.68503937007874072, 0.000000000000000000, 0.000000000000000000 ) ) ;
#57 = SURFACE_STYLE_USAGE ( .BOTH. , #21 ) ;
#58 = EDGE_LOOP ( 'NONE', ( #73, #65, #66, #213 ) ) ;
#59 = EDGE_CURVE ( 'NONE', #24, #48, #54, .T. ) ;
#60 = DIMENSIONAL_EXPONENTS ( 1.000000000000000000, 0.000000000000000000, 0.000000000000000000, 0.000000000000000000, 0.000000000000000000, 0.000000000000000000, 0.000000000000000000 ) ;
#61 = ORIENTED_EDGE ( 'NONE', *, *, #193, .T. ) ;
#62 = EDGE_CURVE ( 'NONE', #76, #94, #103, .T. ) ;
#63 = FILL_AREA_STYLE ('',( #45 ) ) ;
#64 = AXIS2_PLACEMENT_3D ( 'NONE', #69, #17, #170 ) ;
#65 = ORIENTED_EDGE ( 'NONE', *, *, #183, .T. ) ;
#66 = ORIENTED_EDGE ( 'NONE', *, *, #62, .T. ) ;
#67 = FACE_OUTER_BOUND ( 'NONE', #181, .T. ) ;
#68 = CYLINDRICAL_SURFACE ( 'NONE', #107, 0.4773622047244094890 ) ;
#69 = CARTESIAN_POINT ( 'NONE',  ( -19.68503937007874072, 0.000000000000000000, 0.000000000000000000 ) ) ;
#70 = CARTESIAN_POINT ( 'NONE',  ( 19.68503937007874072, 0.000000000000000000, 0.000000000000000000 ) ) ;
#71 = DIRECTION ( 'NONE',  ( -1.000000000000000000, -0.000000000000000000, -0.000000000000000000 ) ) ;
#72 = CIRCLE ( 'NONE', #211, 0.4375000000000000000 ) ;
#73 = ORIENTED_EDGE ( 'NONE', *, *, #132, .F. ) ;
#74 = APPLICATION_PROTOCOL_DEFINITION ( 'draft international standard', 'automotive_design', 1998, #194 ) ;
#75 =( CONVERSION_BASED_UNIT ( 'INCH', #91 ) LENGTH_UNIT ( ) NAMED_UNIT ( #41 ) );
#76 = VERTEX_POINT ( 'NONE', #119 ) ;
#77 = FACE_BOUND ( 'NONE', #144, .T. ) ;
#78 = EDGE_CURVE ( 'NONE', #76, #44, #138, .T. ) ;
#79 = CARTESIAN_POINT ( 'NONE',  ( -19.68503937007874072, 0.000000000000000000, 0.000000000000000000 ) ) ;
#80 = SURFACE_STYLE_USAGE ( .BOTH. , #50 ) ;
#81 = AXIS2_PLACEMENT_3D ( 'NONE', #139, #174, #88 ) ;
#82 =( CONVERSION_BASED_UNIT ( 'INCH', #111 ) LENGTH_UNIT ( ) NAMED_UNIT ( #60 ) );
#83 = CARTESIAN_POINT ( 'NONE',  ( 19.68503937007874072, 0.000000000000000000, 0.000000000000000000 ) ) ;
#84 = DIRECTION ( 'NONE',  ( 1.000000000000000000, 0.000000000000000000, 0.000000000000000000 ) ) ;
#85 = AXIS2_PLACEMENT_3D ( 'NONE', #101, #15, #135 ) ;
#86 = FACE_OUTER_BOUND ( 'NONE', #58, .T. ) ;
#87 = DIRECTION ( 'NONE',  ( 0.000000000000000000, 0.000000000000000000, 1.000000000000000000 ) ) ;
#88 = DIRECTION ( 'NONE',  ( 0.000000000000000000, 0.000000000000000000, -1.000000000000000000 ) ) ;
#89 = AXIS2_PLACEMENT_3D ( 'NONE', #53, #118, #87 ) ;
#90 = DIRECTION ( 'NONE',  ( 0.000000000000000000, 0.000000000000000000, 1.000000000000000000 ) ) ;
#91 = LENGTH_MEASURE_WITH_UNIT ( LENGTH_MEASURE( 0.02539999999999999897 ), #1 );
#92 = CIRCLE ( 'NONE', #121, 0.4375000000000000000 ) ;
#93 = SHAPE_DEFINITION_REPRESENTATION ( #26, #23 ) ;
#94 = VERTEX_POINT ( 'NONE', #122 ) ;
#95 = AXIS2_PLACEMENT_3D ( 'NONE', #38, #90, #142 ) ;
#96 = DIRECTION ( 'NONE',  ( 1.000000000000000000, 0.000000000000000000, 0.000000000000000000 ) ) ;
#97 = ORIENTED_EDGE ( 'NONE', *, *, #125, .F. ) ;
#98 = ORIENTED_EDGE ( 'NONE', *, *, #115, .F. ) ;
#99 = PRODUCT_DEFINITION_FORMATION_WITH_SPECIFIED_SOURCE ( 'ANY', '', #171, .NOT_KNOWN. ) ;
#100 = CARTESIAN_POINT ( 'NONE',  ( 19.68503937007874072, 0.000000000000000000, 0.000000000000000000 ) ) ;
#101 = CARTESIAN_POINT ( 'NONE',  ( 19.68503937007874072, 0.000000000000000000, 0.000000000000000000 ) ) ;
#102 = CYLINDRICAL_SURFACE ( 'NONE', #89, 0.4375000000000000000 ) ;
#103 = LINE ( 'NONE', #203, #178 ) ;
#104 = ADVANCED_FACE ( 'NONE', ( #86 ), #102, .F. ) ;
#105 = FACE_BOUND ( 'NONE', #165, .T. ) ;
#106 = CIRCLE ( 'NONE', #64, 0.4773622047244094890 ) ;
#107 = AXIS2_PLACEMENT_3D ( 'NONE', #70, #137, #205 ) ;
#108 = APPLICATION_PROTOCOL_DEFINITION ( 'draft international standard', 'automotive_design', 1998, #30 ) ;
#109 = AXIS2_PLACEMENT_3D ( 'NONE', #120, #34, #11 ) ;
#110 = ORIENTED_EDGE ( 'NONE', *, *, #132, .T. ) ;
#111 = LENGTH_MEASURE_WITH_UNIT ( LENGTH_MEASURE( 0.02539999999999999897 ), #117 );
#112 = CIRCLE ( 'NONE', #46, 0.4773622047244094890 ) ;
#113 = ORIENTED_EDGE ( 'NONE', *, *, #49, .T. ) ;
#114 = ORIENTED_EDGE ( 'NONE', *, *, #126, .F. ) ;
#115 = EDGE_CURVE ( 'NONE', #94, #27, #40, .T. ) ;
#116 = FACE_OUTER_BOUND ( 'NONE', #187, .T. ) ;
#117 =( LENGTH_UNIT ( ) NAMED_UNIT ( * ) SI_UNIT ( $, .METRE. ) );
#118 = DIRECTION ( 'NONE',  ( -1.000000000000000000, -0.000000000000000000, -0.000000000000000000 ) ) ;
#119 = CARTESIAN_POINT ( 'NONE',  ( 19.68503937007874072, 0.000000000000000000, 0.4375000000000000000 ) ) ;
#120 = CARTESIAN_POINT ( 'NONE',  ( -19.68503937007874072, 0.000000000000000000, 0.000000000000000000 ) ) ;
#121 = AXIS2_PLACEMENT_3D ( 'NONE', #79, #10, #214 ) ;
#122 = CARTESIAN_POINT ( 'NONE',  ( -19.68503937007874072, 0.000000000000000000, 0.4375000000000000000 ) ) ;
#123 = UNCERTAINTY_MEASURE_WITH_UNIT (LENGTH_MEASURE( 1.000000000000000082E-05 ), #75, 'distance_accuracy_value', 'NONE');
#124 = CLOSED_SHELL ( 'NONE', ( #16, #218, #152, #9, #37, #104 ) ) ;
#125 = EDGE_CURVE ( 'NONE', #48, #24, #35, .T. ) ;
#126 = EDGE_CURVE ( 'NONE', #48, #133, #223, .T. ) ;
#127 = COLOUR_RGB ( '',1.000000000000000000, 1.000000000000000000, 1.000000000000000000 ) ;
#128 = UNCERTAINTY_MEASURE_WITH_UNIT (LENGTH_MEASURE( 1.000000000000000082E-05 ), #177, 'distance_accuracy_value', 'NONE');
#129 =( NAMED_UNIT ( * ) PLANE_ANGLE_UNIT ( ) SI_UNIT ( $, .RADIAN. ) );
#130 = AXIS2_PLACEMENT_3D ( 'NONE', #200, #96, #212 ) ;
#131 = ORIENTED_EDGE ( 'NONE', *, *, #78, .F. ) ;
#132 = EDGE_CURVE ( 'NONE', #44, #27, #151, .T. ) ;
#133 = VERTEX_POINT ( 'NONE', #14 ) ;
#134 = LINE ( 'NONE', #149, #55 ) ;
#135 = DIRECTION ( 'NONE',  ( 0.000000000000000000, 0.000000000000000000, -1.000000000000000000 ) ) ;
#136 = CARTESIAN_POINT ( 'NONE',  ( -19.68503937007874072, 0.000000000000000000, 0.000000000000000000 ) ) ;
#137 = DIRECTION ( 'NONE',  ( -1.000000000000000000, -0.000000000000000000, -0.000000000000000000 ) ) ;
#138 = CIRCLE ( 'NONE', #81, 0.4375000000000000000 ) ;
#139 = CARTESIAN_POINT ( 'NONE',  ( 19.68503937007874072, 0.000000000000000000, 0.000000000000000000 ) ) ;
#140 =( NAMED_UNIT ( * ) SI_UNIT ( $, .STERADIAN. ) SOLID_ANGLE_UNIT ( ) );
#141 = ORIENTED_EDGE ( 'NONE', *, *, #62, .F. ) ;
#142 = DIRECTION ( 'NONE',  ( 1.000000000000000000, 0.000000000000000000, 0.000000000000000000 ) ) ;
#143 = PLANE ( 'NONE',  #130 ) ;
#144 = EDGE_LOOP ( 'NONE', ( #164, #28 ) ) ;
#145 = ORIENTED_EDGE ( 'NONE', *, *, #126, .T. ) ;
#146 = PRESENTATION_STYLE_ASSIGNMENT (( #80 ) ) ;
#147 = ORIENTED_EDGE ( 'NONE', *, *, #193, .F. ) ;
#148 = DIRECTION ( 'NONE',  ( 0.000000000000000000, 0.000000000000000000, 1.000000000000000000 ) ) ;
#149 = CARTESIAN_POINT ( 'NONE',  ( 19.68503937007874072, 5.846000960496715646E-17, -0.4773622047244094890 ) ) ;
#150 = PRESENTATION_LAYER_ASSIGNMENT (  '', '', ( #189 ) ) ;
#151 = LINE ( 'NONE', #173, #198 ) ;
#152 = ADVANCED_FACE ( 'NONE', ( #206, #105 ), #222, .T. ) ;
#153 = CARTESIAN_POINT ( 'NONE',  ( 19.68503937007874072, 0.000000000000000000, 0.4773622047244094890 ) ) ;
#154 = CARTESIAN_POINT ( 'NONE',  ( 19.68503937007874072, 0.000000000000000000, 0.000000000000000000 ) ) ;
#155 = AXIS2_PLACEMENT_3D ( 'NONE', #163, #7, #202 ) ;
#156 = STYLED_ITEM ( 'NONE', ( #36 ), #23 ) ;
#157 =( LENGTH_UNIT ( ) NAMED_UNIT ( * ) SI_UNIT ( $, .METRE. ) );
#158 = UNCERTAINTY_MEASURE_WITH_UNIT (LENGTH_MEASURE( 1.000000000000000082E-05 ), #82, 'distance_accuracy_value', 'NONE');
#159 = ORIENTED_EDGE ( 'NONE', *, *, #168, .T. ) ;
#160 = PRODUCT_CONTEXT ( 'NONE', #194, 'mechanical' ) ;
#161 = EDGE_LOOP ( 'NONE', ( #186, #110, #98, #141 ) ) ;
#162 = VECTOR ( 'NONE', #71, 39.37007874015748143 ) ;
#163 = CARTESIAN_POINT ( 'NONE',  ( 19.68503937007874072, 0.000000000000000000, 0.000000000000000000 ) ) ;
#164 = ORIENTED_EDGE ( 'NONE', *, *, #115, .T. ) ;
#165 = EDGE_LOOP ( 'NONE', ( #131, #2 ) ) ;
#166 = AXIS2_PLACEMENT_3D ( 'NONE', #154, #84, #192 ) ;
#167 =( GEOMETRIC_REPRESENTATION_CONTEXT ( 3 ) GLOBAL_UNCERTAINTY_ASSIGNED_CONTEXT ( ( #128 ) ) GLOBAL_UNIT_ASSIGNED_CONTEXT ( ( #177, #39, #19 ) ) REPRESENTATION_CONTEXT ( 'NONE', 'WORKASPACE' ) );
#168 = EDGE_CURVE ( 'NONE', #133, #182, #112, .T. ) ;
#169 = ORIENTED_EDGE ( 'NONE', *, *, #59, .F. ) ;
#170 = DIRECTION ( 'NONE',  ( 0.000000000000000000, 0.000000000000000000, -1.000000000000000000 ) ) ;
#171 = PRODUCT ( 'WCP-0288', 'WCP-0288', '', ( #160 ) ) ;
#172 = DIRECTION ( 'NONE',  ( 0.000000000000000000, 0.000000000000000000, -1.000000000000000000 ) ) ;
#173 = CARTESIAN_POINT ( 'NONE',  ( 19.68503937007874072, 5.357829746269670127E-17, -0.4375000000000000000 ) ) ;
#174 = DIRECTION ( 'NONE',  ( 1.000000000000000000, 0.000000000000000000, 0.000000000000000000 ) ) ;
#175 = CYLINDRICAL_SURFACE ( 'NONE', #185, 0.4773622047244094890 ) ;
#176 = MECHANICAL_DESIGN_GEOMETRIC_PRESENTATION_REPRESENTATION (  '', ( #156 ), #167 ) ;
#177 =( CONVERSION_BASED_UNIT ( 'INCH', #210 ) LENGTH_UNIT ( ) NAMED_UNIT ( #184 ) );
#178 = VECTOR ( 'NONE', #51, 39.37007874015748143 ) ;
#179 = SURFACE_STYLE_FILL_AREA ( #20 ) ;
#180 = EDGE_LOOP ( 'NONE', ( #188, #4 ) ) ;
#181 = EDGE_LOOP ( 'NONE', ( #147, #97, #145, #159 ) ) ;
#182 = VERTEX_POINT ( 'NONE', #29 ) ;
#183 = EDGE_CURVE ( 'NONE', #44, #76, #72, .T. ) ;
#184 = DIMENSIONAL_EXPONENTS ( 1.000000000000000000, 0.000000000000000000, 0.000000000000000000, 0.000000000000000000, 0.000000000000000000, 0.000000000000000000, 0.000000000000000000 ) ;
#185 = AXIS2_PLACEMENT_3D ( 'NONE', #100, #31, #148 ) ;
#186 = ORIENTED_EDGE ( 'NONE', *, *, #78, .T. ) ;
#187 = EDGE_LOOP ( 'NONE', ( #22, #47 ) ) ;
#188 = ORIENTED_EDGE ( 'NONE', *, *, #125, .T. ) ;
#189 = STYLED_ITEM ( 'NONE', ( #146 ), #6 ) ;
#190 = DIRECTION ( 'NONE',  ( 1.000000000000000000, 0.000000000000000000, 0.000000000000000000 ) ) ;
#191 = DIRECTION ( 'NONE',  ( 1.000000000000000000, 0.000000000000000000, 0.000000000000000000 ) ) ;
#192 = DIRECTION ( 'NONE',  ( 0.000000000000000000, 0.000000000000000000, -1.000000000000000000 ) ) ;
#193 = EDGE_CURVE ( 'NONE', #24, #182, #134, .T. ) ;
#194 = APPLICATION_CONTEXT ( 'automotive_design' ) ;
#195 = FACE_OUTER_BOUND ( 'NONE', #42, .T. ) ;
#196 = CARTESIAN_POINT ( 'NONE',  ( 19.68503937007874072, 0.000000000000000000, 0.4773622047244094890 ) ) ;
#197 = PRODUCT_DEFINITION ( 'UNKNOWN', '', #99, #43 ) ;
#198 = VECTOR ( 'NONE', #12, 39.37007874015748143 ) ;
#199 = PRESENTATION_LAYER_ASSIGNMENT (  '', '', ( #156 ) ) ;
#200 = CARTESIAN_POINT ( 'NONE',  ( -19.68503937007874072, 0.000000000000000000, 0.000000000000000000 ) ) ;
#201 = COLOUR_RGB ( '',1.000000000000000000, 1.000000000000000000, 1.000000000000000000 ) ;
#202 = DIRECTION ( 'NONE',  ( 0.000000000000000000, 0.000000000000000000, 1.000000000000000000 ) ) ;
#203 = CARTESIAN_POINT ( 'NONE',  ( 19.68503937007874072, 0.000000000000000000, 0.4375000000000000000 ) ) ;
#204 = CARTESIAN_POINT ( 'NONE',  ( -19.68503937007874072, 5.357829746269670127E-17, -0.4375000000000000000 ) ) ;
#205 = DIRECTION ( 'NONE',  ( 0.000000000000000000, 0.000000000000000000, 1.000000000000000000 ) ) ;
#206 = FACE_OUTER_BOUND ( 'NONE', #180, .T. ) ;
#207 =( NAMED_UNIT ( * ) PLANE_ANGLE_UNIT ( ) SI_UNIT ( $, .RADIAN. ) );
#208 = MECHANICAL_DESIGN_GEOMETRIC_PRESENTATION_REPRESENTATION (  '', ( #189 ), #18 ) ;
#209 = PRODUCT_RELATED_PRODUCT_CATEGORY ( 'part', '', ( #171 ) ) ;
#210 = LENGTH_MEASURE_WITH_UNIT ( LENGTH_MEASURE( 0.02539999999999999897 ), #157 );
#211 = AXIS2_PLACEMENT_3D ( 'NONE', #83, #217, #221 ) ;
#212 = DIRECTION ( 'NONE',  ( 0.000000000000000000, 0.000000000000000000, -1.000000000000000000 ) ) ;
#213 = ORIENTED_EDGE ( 'NONE', *, *, #5, .F. ) ;
#214 = DIRECTION ( 'NONE',  ( 0.000000000000000000, 0.000000000000000000, -1.000000000000000000 ) ) ;
#215 =( NAMED_UNIT ( * ) SI_UNIT ( $, .STERADIAN. ) SOLID_ANGLE_UNIT ( ) );
#216 = SURFACE_STYLE_FILL_AREA ( #63 ) ;
#217 = DIRECTION ( 'NONE',  ( 1.000000000000000000, 0.000000000000000000, 0.000000000000000000 ) ) ;
#218 = ADVANCED_FACE ( 'NONE', ( #195 ), #68, .T. ) ;
#219 =( GEOMETRIC_REPRESENTATION_CONTEXT ( 3 ) GLOBAL_UNCERTAINTY_ASSIGNED_CONTEXT ( ( #123 ) ) GLOBAL_UNIT_ASSIGNED_CONTEXT ( ( #75, #207, #140 ) ) REPRESENTATION_CONTEXT ( 'NONE', 'WORKASPACE' ) );
#220 = DIRECTION ( 'NONE',  ( -1.000000000000000000, -0.000000000000000000, -0.000000000000000000 ) ) ;
#221 = DIRECTION ( 'NONE',  ( 0.000000000000000000, 0.000000000000000000, -1.000000000000000000 ) ) ;
#222 = PLANE ( 'NONE',  #13 ) ;
#223 = LINE ( 'NONE', #196, #162 ) ;
ENDSEC;
END-ISO-10303-21;
