ISO-10303-21;
HEADER;
FILE_DESCRIPTION (( 'STEP AP214' ),
    '1' );
FILE_NAME ('WCP-0287.step',
    '2021-10-06T10:19:50',
    ( '' ),
    ( '' ),
    'SwSTEP 2.0',
    'SolidWorks 2020',
    '' );
FILE_SCHEMA (( 'AUTOMOTIVE_DESIGN' ));
ENDSEC;

DATA;
#1 = SURFACE_STYLE_FILL_AREA ( #136 ) ;
#2 = DIRECTION ( 'NONE',  ( 0.000000000000000000, 0.000000000000000000, -1.000000000000000000 ) ) ;
#3 = FILL_AREA_STYLE_COLOUR ( '', #41 ) ;
#4 = EDGE_CURVE ( 'NONE', #14, #218, #191, .T. ) ;
#5 = CARTESIAN_POINT ( 'NONE',  ( 19.68503937007874072, 0.000000000000000000, 0.3149606299212598381 ) ) ;
#6 = CARTESIAN_POINT ( 'NONE',  ( 19.68503937007874072, 0.000000000000000000, 0.000000000000000000 ) ) ;
#7 =( LENGTH_UNIT ( ) NAMED_UNIT ( * ) SI_UNIT ( $, .METRE. ) );
#8 = VERTEX_POINT ( 'NONE', #170 ) ;
#9 = CIRCLE ( 'NONE', #89, 0.2755905511811023723 ) ;
#10 = LENGTH_MEASURE_WITH_UNIT ( LENGTH_MEASURE( 0.02539999999999999897 ), #7 );
#11 = CIRCLE ( 'NONE', #131, 0.3149606299212598381 ) ;
#12 = ORIENTED_EDGE ( 'NONE', *, *, #127, .F. ) ;
#13 = EDGE_LOOP ( 'NONE', ( #26, #180, #47, #219 ) ) ;
#14 = VERTEX_POINT ( 'NONE', #33 ) ;
#15 = DIRECTION ( 'NONE',  ( 1.000000000000000000, 0.000000000000000000, 0.000000000000000000 ) ) ;
#16 = EDGE_CURVE ( 'NONE', #153, #218, #18, .T. ) ;
#17 = CARTESIAN_POINT ( 'NONE',  ( -19.68503937007874072, 0.000000000000000000, 0.000000000000000000 ) ) ;
#18 = LINE ( 'NONE', #134, #140 ) ;
#19 = AXIS2_PLACEMENT_3D ( 'NONE', #86, #160, #123 ) ;
#20 = DIRECTION ( 'NONE',  ( 1.000000000000000000, 0.000000000000000000, 0.000000000000000000 ) ) ;
#21 = DIMENSIONAL_EXPONENTS ( 1.000000000000000000, 0.000000000000000000, 0.000000000000000000, 0.000000000000000000, 0.000000000000000000, 0.000000000000000000, 0.000000000000000000 ) ;
#22 =( CONVERSION_BASED_UNIT ( 'INCH', #37 ) LENGTH_UNIT ( ) NAMED_UNIT ( #21 ) );
#23 = CLOSED_SHELL ( 'NONE', ( #64, #67, #52, #85, #208, #130 ) ) ;
#24 = VECTOR ( 'NONE', #194, 39.37007874015748143 ) ;
#25 = ORIENTED_EDGE ( 'NONE', *, *, #214, .F. ) ;
#26 = ORIENTED_EDGE ( 'NONE', *, *, #189, .T. ) ;
#27 = VERTEX_POINT ( 'NONE', #119 ) ;
#28 = EDGE_LOOP ( 'NONE', ( #216, #149 ) ) ;
#29 = ADVANCED_BREP_SHAPE_REPRESENTATION ( 'WCP-0287', ( #146, #221 ), #66 ) ;
#30 = FACE_BOUND ( 'NONE', #78, .T. ) ;
#31 = DIRECTION ( 'NONE',  ( 1.000000000000000000, 0.000000000000000000, 0.000000000000000000 ) ) ;
#32 = PRODUCT_DEFINITION_CONTEXT ( 'detailed design', #198, 'design' ) ;
#33 = CARTESIAN_POINT ( 'NONE',  ( -19.68503937007874072, 3.375010863791918375E-17, -0.2755905511811023723 ) ) ;
#34 = DIRECTION ( 'NONE',  ( 1.000000000000000000, 0.000000000000000000, 0.000000000000000000 ) ) ;
#35 = CARTESIAN_POINT ( 'NONE',  ( 19.68503937007874072, 0.000000000000000000, 0.000000000000000000 ) ) ;
#36 = CIRCLE ( 'NONE', #109, 0.2755905511811023723 ) ;
#37 = LENGTH_MEASURE_WITH_UNIT ( LENGTH_MEASURE( 0.02539999999999999897 ), #177 );
#38 = DIRECTION ( 'NONE',  ( 0.000000000000000000, 0.000000000000000000, 1.000000000000000000 ) ) ;
#39 = PRODUCT ( 'WCP-0287', 'WCP-0287', '', ( #179 ) ) ;
#40 = DIRECTION ( 'NONE',  ( 0.000000000000000000, 0.000000000000000000, -1.000000000000000000 ) ) ;
#41 = COLOUR_RGB ( '',1.000000000000000000, 1.000000000000000000, 1.000000000000000000 ) ;
#42 = CARTESIAN_POINT ( 'NONE',  ( 19.68503937007874072, 3.857155272905049219E-17, -0.3149606299212598381 ) ) ;
#43 = ORIENTED_EDGE ( 'NONE', *, *, #56, .F. ) ;
#44 = MECHANICAL_DESIGN_GEOMETRIC_PRESENTATION_REPRESENTATION (  '', ( #200 ), #70 ) ;
#45 = STYLED_ITEM ( 'NONE', ( #126 ), #29 ) ;
#46 = ORIENTED_EDGE ( 'NONE', *, *, #166, .F. ) ;
#47 = ORIENTED_EDGE ( 'NONE', *, *, #125, .F. ) ;
#48 = PRODUCT_RELATED_PRODUCT_CATEGORY ( 'part', '', ( #39 ) ) ;
#49 = AXIS2_PLACEMENT_3D ( 'NONE', #207, #222, #223 ) ;
#50 = ORIENTED_EDGE ( 'NONE', *, *, #189, .F. ) ;
#51 = DIRECTION ( 'NONE',  ( 0.000000000000000000, 0.000000000000000000, -1.000000000000000000 ) ) ;
#52 = ADVANCED_FACE ( 'NONE', ( #106, #30 ), #91, .T. ) ;
#53 = CYLINDRICAL_SURFACE ( 'NONE', #211, 0.3149606299212598381 ) ;
#54 = FACE_OUTER_BOUND ( 'NONE', #113, .T. ) ;
#55 = DIRECTION ( 'NONE',  ( -1.000000000000000000, -0.000000000000000000, -0.000000000000000000 ) ) ;
#56 = EDGE_CURVE ( 'NONE', #98, #153, #9, .T. ) ;
#57 =( NAMED_UNIT ( * ) SI_UNIT ( $, .STERADIAN. ) SOLID_ANGLE_UNIT ( ) );
#58 = PRESENTATION_LAYER_ASSIGNMENT (  '', '', ( #200 ) ) ;
#59 = MECHANICAL_DESIGN_GEOMETRIC_PRESENTATION_REPRESENTATION (  '', ( #45 ), #167 ) ;
#60 = FACE_OUTER_BOUND ( 'NONE', #63, .T. ) ;
#61 = SURFACE_STYLE_USAGE ( .BOTH. , #138 ) ;
#62 = VERTEX_POINT ( 'NONE', #154 ) ;
#63 = EDGE_LOOP ( 'NONE', ( #163, #162, #181, #103 ) ) ;
#64 = ADVANCED_FACE ( 'NONE', ( #115 ), #185, .F. ) ;
#65 = ORIENTED_EDGE ( 'NONE', *, *, #151, .T. ) ;
#66 =( GEOMETRIC_REPRESENTATION_CONTEXT ( 3 ) GLOBAL_UNCERTAINTY_ASSIGNED_CONTEXT ( ( #74 ) ) GLOBAL_UNIT_ASSIGNED_CONTEXT ( ( #22, #210, #213 ) ) REPRESENTATION_CONTEXT ( 'NONE', 'WORKASPACE' ) );
#67 = ADVANCED_FACE ( 'NONE', ( #54 ), #53, .T. ) ;
#68 = DIRECTION ( 'NONE',  ( 0.000000000000000000, 0.000000000000000000, 1.000000000000000000 ) ) ;
#69 = CARTESIAN_POINT ( 'NONE',  ( -19.68503937007874072, 0.000000000000000000, 0.000000000000000000 ) ) ;
#70 =( GEOMETRIC_REPRESENTATION_CONTEXT ( 3 ) GLOBAL_UNCERTAINTY_ASSIGNED_CONTEXT ( ( #152 ) ) GLOBAL_UNIT_ASSIGNED_CONTEXT ( ( #96, #94, #57 ) ) REPRESENTATION_CONTEXT ( 'NONE', 'WORKASPACE' ) );
#71 = SURFACE_SIDE_STYLE ('',( #1 ) ) ;
#72 = DIRECTION ( 'NONE',  ( -1.000000000000000000, -0.000000000000000000, -0.000000000000000000 ) ) ;
#73 = CYLINDRICAL_SURFACE ( 'NONE', #212, 0.3149606299212598381 ) ;
#74 = UNCERTAINTY_MEASURE_WITH_UNIT (LENGTH_MEASURE( 1.000000000000000082E-05 ), #22, 'distance_accuracy_value', 'NONE');
#75 = CARTESIAN_POINT ( 'NONE',  ( 19.68503937007874072, 0.000000000000000000, 0.000000000000000000 ) ) ;
#76 = SURFACE_STYLE_FILL_AREA ( #197 ) ;
#77 =( CONVERSION_BASED_UNIT ( 'INCH', #10 ) LENGTH_UNIT ( ) NAMED_UNIT ( #139 ) );
#78 = EDGE_LOOP ( 'NONE', ( #50, #43 ) ) ;
#79 = EDGE_LOOP ( 'NONE', ( #199, #182 ) ) ;
#80 = AXIS2_PLACEMENT_3D ( 'NONE', #157, #34, #87 ) ;
#81 = ORIENTED_EDGE ( 'NONE', *, *, #137, .F. ) ;
#82 =( NAMED_UNIT ( * ) PLANE_ANGLE_UNIT ( ) SI_UNIT ( $, .RADIAN. ) );
#83 = EDGE_LOOP ( 'NONE', ( #12, #81 ) ) ;
#84 = VERTEX_POINT ( 'NONE', #184 ) ;
#85 = ADVANCED_FACE ( 'NONE', ( #165, #104 ), #118, .F. ) ;
#86 = CARTESIAN_POINT ( 'NONE',  ( 19.68503937007874072, 0.000000000000000000, 0.000000000000000000 ) ) ;
#87 = DIRECTION ( 'NONE',  ( 0.000000000000000000, 0.000000000000000000, -1.000000000000000000 ) ) ;
#88 = CARTESIAN_POINT ( 'NONE',  ( -19.68503937007874072, 0.000000000000000000, 0.000000000000000000 ) ) ;
#89 = AXIS2_PLACEMENT_3D ( 'NONE', #201, #203, #205 ) ;
#90 = CARTESIAN_POINT ( 'NONE',  ( -19.68503937007874072, 0.000000000000000000, 0.000000000000000000 ) ) ;
#91 = PLANE ( 'NONE',  #107 ) ;
#92 = DIMENSIONAL_EXPONENTS ( 1.000000000000000000, 0.000000000000000000, 0.000000000000000000, 0.000000000000000000, 0.000000000000000000, 0.000000000000000000, 0.000000000000000000 ) ;
#93 = AXIS2_PLACEMENT_3D ( 'NONE', #88, #187, #173 ) ;
#94 =( NAMED_UNIT ( * ) PLANE_ANGLE_UNIT ( ) SI_UNIT ( $, .RADIAN. ) );
#95 = CARTESIAN_POINT ( 'NONE',  ( -19.68503937007874072, 0.000000000000000000, 0.2755905511811023723 ) ) ;
#96 =( CONVERSION_BASED_UNIT ( 'INCH', #158 ) LENGTH_UNIT ( ) NAMED_UNIT ( #92 ) );
#97 = CIRCLE ( 'NONE', #80, 0.3149606299212598381 ) ;
#98 = VERTEX_POINT ( 'NONE', #120 ) ;
#99 = ORIENTED_EDGE ( 'NONE', *, *, #183, .F. ) ;
#100 = APPLICATION_CONTEXT ( 'automotive_design' ) ;
#101 = APPLICATION_PROTOCOL_DEFINITION ( 'draft international standard', 'automotive_design', 1998, #198 ) ;
#102 = EDGE_LOOP ( 'NONE', ( #25, #129, #220, #114 ) ) ;
#103 = ORIENTED_EDGE ( 'NONE', *, *, #127, .T. ) ;
#104 = FACE_BOUND ( 'NONE', #79, .T. ) ;
#105 = CARTESIAN_POINT ( 'NONE',  ( 19.68503937007874072, 0.000000000000000000, 0.000000000000000000 ) ) ;
#106 = FACE_OUTER_BOUND ( 'NONE', #28, .T. ) ;
#107 = AXIS2_PLACEMENT_3D ( 'NONE', #133, #20, #116 ) ;
#108 = DIRECTION ( 'NONE',  ( -1.000000000000000000, -0.000000000000000000, -0.000000000000000000 ) ) ;
#109 = AXIS2_PLACEMENT_3D ( 'NONE', #90, #15, #2 ) ;
#110 = DIRECTION ( 'NONE',  ( -1.000000000000000000, -0.000000000000000000, -0.000000000000000000 ) ) ;
#111 = CARTESIAN_POINT ( 'NONE',  ( 19.68503937007874072, 0.000000000000000000, 0.000000000000000000 ) ) ;
#112 = SHAPE_DEFINITION_REPRESENTATION ( #148, #29 ) ;
#113 = EDGE_LOOP ( 'NONE', ( #46, #65, #150, #99 ) ) ;
#114 = ORIENTED_EDGE ( 'NONE', *, *, #4, .F. ) ;
#115 = FACE_OUTER_BOUND ( 'NONE', #13, .T. ) ;
#116 = DIRECTION ( 'NONE',  ( 0.000000000000000000, 0.000000000000000000, -1.000000000000000000 ) ) ;
#117 = COLOUR_RGB ( '',1.000000000000000000, 1.000000000000000000, 1.000000000000000000 ) ;
#118 = PLANE ( 'NONE',  #93 ) ;
#119 = CARTESIAN_POINT ( 'NONE',  ( 19.68503937007874072, 0.000000000000000000, 0.3149606299212598381 ) ) ;
#120 = CARTESIAN_POINT ( 'NONE',  ( 19.68503937007874072, 3.375010863791918375E-17, -0.2755905511811023723 ) ) ;
#121 = AXIS2_PLACEMENT_3D ( 'NONE', #69, #31, #132 ) ;
#122 = DIRECTION ( 'NONE',  ( 0.000000000000000000, 0.000000000000000000, -1.000000000000000000 ) ) ;
#123 = DIRECTION ( 'NONE',  ( 0.000000000000000000, 0.000000000000000000, -1.000000000000000000 ) ) ;
#124 = APPLICATION_PROTOCOL_DEFINITION ( 'draft international standard', 'automotive_design', 1998, #100 ) ;
#125 = EDGE_CURVE ( 'NONE', #218, #14, #36, .T. ) ;
#126 = PRESENTATION_STYLE_ASSIGNMENT (( #61 ) ) ;
#127 = EDGE_CURVE ( 'NONE', #62, #8, #97, .T. ) ;
#128 = DIRECTION ( 'NONE',  ( 0.000000000000000000, 0.000000000000000000, 1.000000000000000000 ) ) ;
#129 = ORIENTED_EDGE ( 'NONE', *, *, #56, .T. ) ;
#130 = ADVANCED_FACE ( 'NONE', ( #155 ), #169, .F. ) ;
#131 = AXIS2_PLACEMENT_3D ( 'NONE', #75, #178, #122 ) ;
#132 = DIRECTION ( 'NONE',  ( 0.000000000000000000, 0.000000000000000000, -1.000000000000000000 ) ) ;
#133 = CARTESIAN_POINT ( 'NONE',  ( 19.68503937007874072, 0.000000000000000000, 0.000000000000000000 ) ) ;
#134 = CARTESIAN_POINT ( 'NONE',  ( 19.68503937007874072, 0.000000000000000000, 0.2755905511811023723 ) ) ;
#135 = SURFACE_STYLE_USAGE ( .BOTH. , #71 ) ;
#136 = FILL_AREA_STYLE ('',( #3 ) ) ;
#137 = EDGE_CURVE ( 'NONE', #8, #62, #204, .T. ) ;
#138 = SURFACE_SIDE_STYLE ('',( #76 ) ) ;
#139 = DIMENSIONAL_EXPONENTS ( 1.000000000000000000, 0.000000000000000000, 0.000000000000000000, 0.000000000000000000, 0.000000000000000000, 0.000000000000000000, 0.000000000000000000 ) ;
#140 = VECTOR ( 'NONE', #72, 39.37007874015748143 ) ;
#141 = VECTOR ( 'NONE', #143, 39.37007874015748143 ) ;
#142 = DIRECTION ( 'NONE',  ( 1.000000000000000000, 0.000000000000000000, 0.000000000000000000 ) ) ;
#143 = DIRECTION ( 'NONE',  ( -1.000000000000000000, -0.000000000000000000, -0.000000000000000000 ) ) ;
#144 = LINE ( 'NONE', #42, #24 ) ;
#145 = PRESENTATION_LAYER_ASSIGNMENT (  '', '', ( #45 ) ) ;
#146 = MANIFOLD_SOLID_BREP ( 'Boss-Extrude1', #23 ) ;
#147 = EDGE_CURVE ( 'NONE', #27, #84, #196, .T. ) ;
#148 = PRODUCT_DEFINITION_SHAPE ( 'NONE', 'NONE',  #161 ) ;
#149 = ORIENTED_EDGE ( 'NONE', *, *, #166, .T. ) ;
#150 = ORIENTED_EDGE ( 'NONE', *, *, #137, .T. ) ;
#151 = EDGE_CURVE ( 'NONE', #84, #8, #144, .T. ) ;
#152 = UNCERTAINTY_MEASURE_WITH_UNIT (LENGTH_MEASURE( 1.000000000000000082E-05 ), #96, 'distance_accuracy_value', 'NONE');
#153 = VERTEX_POINT ( 'NONE', #209 ) ;
#154 = CARTESIAN_POINT ( 'NONE',  ( -19.68503937007874072, 0.000000000000000000, 0.3149606299212598381 ) ) ;
#155 = FACE_OUTER_BOUND ( 'NONE', #102, .T. ) ;
#156 = DIRECTION ( 'NONE',  ( 1.000000000000000000, 0.000000000000000000, 0.000000000000000000 ) ) ;
#157 = CARTESIAN_POINT ( 'NONE',  ( -19.68503937007874072, 0.000000000000000000, 0.000000000000000000 ) ) ;
#158 = LENGTH_MEASURE_WITH_UNIT ( LENGTH_MEASURE( 0.02539999999999999897 ), #188 );
#159 = FILL_AREA_STYLE_COLOUR ( '', #117 ) ;
#160 = DIRECTION ( 'NONE',  ( 1.000000000000000000, 0.000000000000000000, 0.000000000000000000 ) ) ;
#161 = PRODUCT_DEFINITION ( 'UNKNOWN', '', #172, #32 ) ;
#162 = ORIENTED_EDGE ( 'NONE', *, *, #147, .F. ) ;
#163 = ORIENTED_EDGE ( 'NONE', *, *, #151, .F. ) ;
#164 = CARTESIAN_POINT ( 'NONE',  ( 0.000000000000000000, 0.000000000000000000, 0.000000000000000000 ) ) ;
#165 = FACE_OUTER_BOUND ( 'NONE', #83, .T. ) ;
#166 = EDGE_CURVE ( 'NONE', #84, #27, #11, .T. ) ;
#167 =( GEOMETRIC_REPRESENTATION_CONTEXT ( 3 ) GLOBAL_UNCERTAINTY_ASSIGNED_CONTEXT ( ( #206 ) ) GLOBAL_UNIT_ASSIGNED_CONTEXT ( ( #77, #82, #215 ) ) REPRESENTATION_CONTEXT ( 'NONE', 'WORKASPACE' ) );
#168 = DIRECTION ( 'NONE',  ( 0.000000000000000000, 0.000000000000000000, 1.000000000000000000 ) ) ;
#169 = CYLINDRICAL_SURFACE ( 'NONE', #49, 0.2755905511811023723 ) ;
#170 = CARTESIAN_POINT ( 'NONE',  ( -19.68503937007874072, 3.857155272905049219E-17, -0.3149606299212598381 ) ) ;
#171 = AXIS2_PLACEMENT_3D ( 'NONE', #17, #156, #51 ) ;
#172 = PRODUCT_DEFINITION_FORMATION_WITH_SPECIFIED_SOURCE ( 'ANY', '', #39, .NOT_KNOWN. ) ;
#173 = DIRECTION ( 'NONE',  ( 0.000000000000000000, 0.000000000000000000, -1.000000000000000000 ) ) ;
#174 = CARTESIAN_POINT ( 'NONE',  ( 19.68503937007874072, 3.375010863791918375E-17, -0.2755905511811023723 ) ) ;
#175 = AXIS2_PLACEMENT_3D ( 'NONE', #35, #202, #168 ) ;
#176 = VECTOR ( 'NONE', #110, 39.37007874015748143 ) ;
#177 =( LENGTH_UNIT ( ) NAMED_UNIT ( * ) SI_UNIT ( $, .METRE. ) );
#178 = DIRECTION ( 'NONE',  ( 1.000000000000000000, 0.000000000000000000, 0.000000000000000000 ) ) ;
#179 = PRODUCT_CONTEXT ( 'NONE', #100, 'mechanical' ) ;
#180 = ORIENTED_EDGE ( 'NONE', *, *, #214, .T. ) ;
#181 = ORIENTED_EDGE ( 'NONE', *, *, #183, .T. ) ;
#182 = ORIENTED_EDGE ( 'NONE', *, *, #4, .T. ) ;
#183 = EDGE_CURVE ( 'NONE', #27, #62, #193, .T. ) ;
#184 = CARTESIAN_POINT ( 'NONE',  ( 19.68503937007874072, 3.857155272905049219E-17, -0.3149606299212598381 ) ) ;
#185 = CYLINDRICAL_SURFACE ( 'NONE', #175, 0.2755905511811023723 ) ;
#186 = AXIS2_PLACEMENT_3D ( 'NONE', #111, #142, #40 ) ;
#187 = DIRECTION ( 'NONE',  ( 1.000000000000000000, 0.000000000000000000, 0.000000000000000000 ) ) ;
#188 =( LENGTH_UNIT ( ) NAMED_UNIT ( * ) SI_UNIT ( $, .METRE. ) );
#189 = EDGE_CURVE ( 'NONE', #153, #98, #192, .T. ) ;
#190 = PRESENTATION_STYLE_ASSIGNMENT (( #135 ) ) ;
#191 = CIRCLE ( 'NONE', #121, 0.2755905511811023723 ) ;
#192 = CIRCLE ( 'NONE', #186, 0.2755905511811023723 ) ;
#193 = LINE ( 'NONE', #5, #141 ) ;
#194 = DIRECTION ( 'NONE',  ( -1.000000000000000000, -0.000000000000000000, -0.000000000000000000 ) ) ;
#195 = LINE ( 'NONE', #174, #176 ) ;
#196 = CIRCLE ( 'NONE', #19, 0.3149606299212598381 ) ;
#197 = FILL_AREA_STYLE ('',( #159 ) ) ;
#198 = APPLICATION_CONTEXT ( 'automotive_design' ) ;
#199 = ORIENTED_EDGE ( 'NONE', *, *, #125, .T. ) ;
#200 = STYLED_ITEM ( 'NONE', ( #190 ), #146 ) ;
#201 = CARTESIAN_POINT ( 'NONE',  ( 19.68503937007874072, 0.000000000000000000, 0.000000000000000000 ) ) ;
#202 = DIRECTION ( 'NONE',  ( -1.000000000000000000, -0.000000000000000000, -0.000000000000000000 ) ) ;
#203 = DIRECTION ( 'NONE',  ( 1.000000000000000000, 0.000000000000000000, 0.000000000000000000 ) ) ;
#204 = CIRCLE ( 'NONE', #171, 0.3149606299212598381 ) ;
#205 = DIRECTION ( 'NONE',  ( 0.000000000000000000, 0.000000000000000000, -1.000000000000000000 ) ) ;
#206 = UNCERTAINTY_MEASURE_WITH_UNIT (LENGTH_MEASURE( 1.000000000000000082E-05 ), #77, 'distance_accuracy_value', 'NONE');
#207 = CARTESIAN_POINT ( 'NONE',  ( 19.68503937007874072, 0.000000000000000000, 0.000000000000000000 ) ) ;
#208 = ADVANCED_FACE ( 'NONE', ( #60 ), #73, .T. ) ;
#209 = CARTESIAN_POINT ( 'NONE',  ( 19.68503937007874072, 0.000000000000000000, 0.2755905511811023723 ) ) ;
#210 =( NAMED_UNIT ( * ) PLANE_ANGLE_UNIT ( ) SI_UNIT ( $, .RADIAN. ) );
#211 = AXIS2_PLACEMENT_3D ( 'NONE', #105, #55, #68 ) ;
#212 = AXIS2_PLACEMENT_3D ( 'NONE', #6, #108, #38 ) ;
#213 =( NAMED_UNIT ( * ) SI_UNIT ( $, .STERADIAN. ) SOLID_ANGLE_UNIT ( ) );
#214 = EDGE_CURVE ( 'NONE', #98, #14, #195, .T. ) ;
#215 =( NAMED_UNIT ( * ) SI_UNIT ( $, .STERADIAN. ) SOLID_ANGLE_UNIT ( ) );
#216 = ORIENTED_EDGE ( 'NONE', *, *, #147, .T. ) ;
#217 = DIRECTION ( 'NONE',  ( 1.000000000000000000, 0.000000000000000000, 0.000000000000000000 ) ) ;
#218 = VERTEX_POINT ( 'NONE', #95 ) ;
#219 = ORIENTED_EDGE ( 'NONE', *, *, #16, .F. ) ;
#220 = ORIENTED_EDGE ( 'NONE', *, *, #16, .T. ) ;
#221 = AXIS2_PLACEMENT_3D ( 'NONE', #164, #128, #217 ) ;
#222 = DIRECTION ( 'NONE',  ( -1.000000000000000000, -0.000000000000000000, -0.000000000000000000 ) ) ;
#223 = DIRECTION ( 'NONE',  ( 0.000000000000000000, 0.000000000000000000, 1.000000000000000000 ) ) ;
ENDSEC;
END-ISO-10303-21;
