ISO-10303-21;
HEADER;
FILE_DESCRIPTION (( 'STEP AP214' ),
    '1' );
FILE_NAME ('WCP-0284 Rev1.step',
    '2024-01-15T23:02:55',
    ( '' ),
    ( '' ),
    'SwSTEP 2.0',
    'SolidWorks 2022',
    '' );
FILE_SCHEMA (( 'AUTOMOTIVE_DESIGN' ));
ENDSEC;

DATA;
#1 = EDGE_CURVE ( 'NONE', #118, #163, #37, .T. ) ;
#2 = EDGE_LOOP ( 'NONE', ( #224, #303, #53, #227 ) ) ;
#3 = VECTOR ( 'NONE', #272, 39.37007874015748143 ) ;
#4 = ORIENTED_EDGE ( 'NONE', *, *, #125, .F. ) ;
#5 = EDGE_LOOP ( 'NONE', ( #298, #293, #106, #323 ) ) ;
#6 = PRESENTATION_STYLE_ASSIGNMENT (( #246 ) ) ;
#7 = ORIENTED_EDGE ( 'NONE', *, *, #119, .T. ) ;
#8 = ORIENTED_EDGE ( 'NONE', *, *, #344, .F. ) ;
#9 = DIRECTION ( 'NONE',  ( -1.000000000000000000, -0.000000000000000000, -0.000000000000000000 ) ) ;
#10 = CARTESIAN_POINT ( 'NONE',  ( 23.50000000000000000, -0.6250000000000001110, -0.6250000000000001110 ) ) ;
#11 = UNCERTAINTY_MEASURE_WITH_UNIT (LENGTH_MEASURE( 1.000000000000000082E-05 ), #269, 'distance_accuracy_value', 'NONE');
#12 = PLANE ( 'NONE',  #313 ) ;
#13 = EDGE_CURVE ( 'NONE', #93, #34, #205, .T. ) ;
#14 =( NAMED_UNIT ( * ) SI_UNIT ( $, .STERADIAN. ) SOLID_ANGLE_UNIT ( ) );
#15 =( NAMED_UNIT ( * ) SI_UNIT ( $, .STERADIAN. ) SOLID_ANGLE_UNIT ( ) );
#16 = EDGE_CURVE ( 'NONE', #247, #143, #310, .T. ) ;
#17 = FACE_BOUND ( 'NONE', #5, .T. ) ;
#18 = FACE_OUTER_BOUND ( 'NONE', #220, .T. ) ;
#19 = VECTOR ( 'NONE', #186, 39.37007874015748143 ) ;
#20 = LINE ( 'NONE', #131, #97 ) ;
#21 = STYLED_ITEM ( 'NONE', ( #46 ), #96 ) ;
#22 = CARTESIAN_POINT ( 'NONE',  ( 23.50000000000000000, 0.000000000000000000, 0.000000000000000000 ) ) ;
#23 = EDGE_CURVE ( 'NONE', #61, #201, #229, .T. ) ;
#24 = LINE ( 'NONE', #132, #74 ) ;
#25 =( GEOMETRIC_REPRESENTATION_CONTEXT ( 3 ) GLOBAL_UNCERTAINTY_ASSIGNED_CONTEXT ( ( #234 ) ) GLOBAL_UNIT_ASSIGNED_CONTEXT ( ( #335, #40, #14 ) ) REPRESENTATION_CONTEXT ( 'NONE', 'WORKASPACE' ) );
#26 = LENGTH_MEASURE_WITH_UNIT ( LENGTH_MEASURE( 0.02539999999999999897 ), #221 );
#27 = ORIENTED_EDGE ( 'NONE', *, *, #329, .F. ) ;
#28 = CLOSED_SHELL ( 'NONE', ( #121, #164, #257, #188, #90, #318, #69, #47, #179, #232 ) ) ;
#29 = VECTOR ( 'NONE', #312, 39.37007874015748143 ) ;
#30 = ORIENTED_EDGE ( 'NONE', *, *, #125, .T. ) ;
#31 =( NAMED_UNIT ( * ) PLANE_ANGLE_UNIT ( ) SI_UNIT ( $, .RADIAN. ) );
#32 = ORIENTED_EDGE ( 'NONE', *, *, #56, .F. ) ;
#33 = DIRECTION ( 'NONE',  ( -1.000000000000000000, -0.000000000000000000, -0.000000000000000000 ) ) ;
#34 = VERTEX_POINT ( 'NONE', #278 ) ;
#35 = APPLICATION_PROTOCOL_DEFINITION ( 'draft international standard', 'automotive_design', 1998, #198 ) ;
#36 = ORIENTED_EDGE ( 'NONE', *, *, #13, .F. ) ;
#37 = LINE ( 'NONE', #145, #137 ) ;
#38 = CARTESIAN_POINT ( 'NONE',  ( -23.50000000000000000, -0.6250000000000001110, 0.6249999999999997780 ) ) ;
#39 = AXIS2_PLACEMENT_3D ( 'NONE', #151, #71, #123 ) ;
#40 =( NAMED_UNIT ( * ) PLANE_ANGLE_UNIT ( ) SI_UNIT ( $, .RADIAN. ) );
#41 = CARTESIAN_POINT ( 'NONE',  ( -23.50000000000000000, -0.7500000000000002220, 0.7499999999999997780 ) ) ;
#42 = DIMENSIONAL_EXPONENTS ( 1.000000000000000000, 0.000000000000000000, 0.000000000000000000, 0.000000000000000000, 0.000000000000000000, 0.000000000000000000, 0.000000000000000000 ) ;
#43 = DIRECTION ( 'NONE',  ( 0.000000000000000000, 0.000000000000000000, 1.000000000000000000 ) ) ;
#44 = SURFACE_SIDE_STYLE ('',( #283 ) ) ;
#45 = PRODUCT_DEFINITION_FORMATION_WITH_SPECIFIED_SOURCE ( 'ANY', '', #128, .NOT_KNOWN. ) ;
#46 = PRESENTATION_STYLE_ASSIGNMENT (( #68 ) ) ;
#47 = ADVANCED_FACE ( 'NONE', ( #336 ), #255, .T. ) ;
#48 = CARTESIAN_POINT ( 'NONE',  ( -23.50000000000000000, 0.7499999999999998890, -0.7500000000000001110 ) ) ;
#49 = FACE_OUTER_BOUND ( 'NONE', #342, .T. ) ;
#50 = VECTOR ( 'NONE', #275, 39.37007874015748143 ) ;
#51 = EDGE_CURVE ( 'NONE', #326, #93, #207, .T. ) ;
#52 = DIRECTION ( 'NONE',  ( 0.000000000000000000, -1.000000000000000000, -1.821231995776175479E-16 ) ) ;
#53 = ORIENTED_EDGE ( 'NONE', *, *, #315, .T. ) ;
#54 = CARTESIAN_POINT ( 'NONE',  ( 23.50000000000000000, -0.6250000000000001110, 0.7499999999999997780 ) ) ;
#55 = DIRECTION ( 'NONE',  ( 0.000000000000000000, 0.000000000000000000, 1.000000000000000000 ) ) ;
#56 = EDGE_CURVE ( 'NONE', #273, #118, #126, .T. ) ;
#57 = VECTOR ( 'NONE', #33, 39.37007874015748143 ) ;
#58 = CARTESIAN_POINT ( 'NONE',  ( 23.50000000000000000, -0.7500000000000002220, -0.7500000000000002220 ) ) ;
#59 = ORIENTED_EDGE ( 'NONE', *, *, #95, .T. ) ;
#60 = CARTESIAN_POINT ( 'NONE',  ( 23.50000000000000000, -0.7500000000000002220, 0.7499999999999997780 ) ) ;
#61 = VERTEX_POINT ( 'NONE', #10 ) ;
#62 = DIRECTION ( 'NONE',  ( 0.000000000000000000, -9.106159978880877395E-17, 1.000000000000000000 ) ) ;
#63 = ORIENTED_EDGE ( 'NONE', *, *, #1, .F. ) ;
#64 = CARTESIAN_POINT ( 'NONE',  ( -23.50000000000000000, 0.7499999999999998890, 0.7500000000000001110 ) ) ;
#65 = VERTEX_POINT ( 'NONE', #38 ) ;
#66 = PLANE ( 'NONE',  #109 ) ;
#67 = ORIENTED_EDGE ( 'NONE', *, *, #285, .F. ) ;
#68 = SURFACE_STYLE_USAGE ( .BOTH. , #44 ) ;
#69 = ADVANCED_FACE ( 'NONE', ( #330 ), #12, .T. ) ;
#70 = VECTOR ( 'NONE', #88, 39.37007874015748143 ) ;
#71 = DIRECTION ( 'NONE',  ( 0.000000000000000000, 1.821231995776175479E-16, -1.000000000000000000 ) ) ;
#72 = PLANE ( 'NONE',  #39 ) ;
#73 = CARTESIAN_POINT ( 'NONE',  ( -23.50000000000000000, -0.7500000000000002220, 0.7499999999999997780 ) ) ;
#74 = VECTOR ( 'NONE', #211, 39.37007874015748143 ) ;
#75 = DIRECTION ( 'NONE',  ( 0.000000000000000000, 0.000000000000000000, 1.000000000000000000 ) ) ;
#76 = DIRECTION ( 'NONE',  ( 0.000000000000000000, -0.000000000000000000, -1.000000000000000000 ) ) ;
#77 = CARTESIAN_POINT ( 'NONE',  ( -23.50000000000000000, 0.000000000000000000, 0.000000000000000000 ) ) ;
#78 = ORIENTED_EDGE ( 'NONE', *, *, #193, .F. ) ;
#79 = EDGE_CURVE ( 'NONE', #163, #326, #282, .T. ) ;
#80 = DIRECTION ( 'NONE',  ( 0.000000000000000000, 1.000000000000000000, 1.821231995776175479E-16 ) ) ;
#81 = DIRECTION ( 'NONE',  ( 0.000000000000000000, 1.821231995776175479E-16, -1.000000000000000000 ) ) ;
#82 = EDGE_CURVE ( 'NONE', #321, #247, #122, .T. ) ;
#83 = LINE ( 'NONE', #322, #183 ) ;
#84 = ORIENTED_EDGE ( 'NONE', *, *, #344, .T. ) ;
#85 = DIRECTION ( 'NONE',  ( -1.000000000000000000, -0.000000000000000000, -0.000000000000000000 ) ) ;
#86 = EDGE_LOOP ( 'NONE', ( #89, #327, #276, #158 ) ) ;
#87 =( GEOMETRIC_REPRESENTATION_CONTEXT ( 3 ) GLOBAL_UNCERTAINTY_ASSIGNED_CONTEXT ( ( #150 ) ) GLOBAL_UNIT_ASSIGNED_CONTEXT ( ( #260, #177, #15 ) ) REPRESENTATION_CONTEXT ( 'NONE', 'WORKASPACE' ) );
#88 = DIRECTION ( 'NONE',  ( 0.000000000000000000, 0.000000000000000000, -1.000000000000000000 ) ) ;
#89 = ORIENTED_EDGE ( 'NONE', *, *, #119, .F. ) ;
#90 = ADVANCED_FACE ( 'NONE', ( #148 ), #72, .F. ) ;
#91 = ORIENTED_EDGE ( 'NONE', *, *, #104, .F. ) ;
#92 = CARTESIAN_POINT ( 'NONE',  ( -23.50000000000000000, -0.6250000000000001110, 0.7499999999999997780 ) ) ;
#93 = VERTEX_POINT ( 'NONE', #41 ) ;
#94 = DIRECTION ( 'NONE',  ( 0.000000000000000000, -1.000000000000000000, -9.106159978880877395E-17 ) ) ;
#95 = EDGE_CURVE ( 'NONE', #118, #225, #235, .T. ) ;
#96 = MANIFOLD_SOLID_BREP ( 'Extrude-Thin1', #28 ) ;
#97 = VECTOR ( 'NONE', #316, 39.37007874015748143 ) ;
#98 = DIRECTION ( 'NONE',  ( 0.000000000000000000, -1.000000000000000000, -1.821231995776175479E-16 ) ) ;
#99 = CARTESIAN_POINT ( 'NONE',  ( 23.50000000000000000, 0.7499999999999998890, 0.6250000000000000000 ) ) ;
#100 = CARTESIAN_POINT ( 'NONE',  ( 23.50000000000000000, -0.6250000000000001110, -0.6250000000000001110 ) ) ;
#101 = FACE_BOUND ( 'NONE', #325, .T. ) ;
#102 = VECTOR ( 'NONE', #305, 39.37007874015748143 ) ;
#103 = DIRECTION ( 'NONE',  ( 0.000000000000000000, 0.000000000000000000, -1.000000000000000000 ) ) ;
#104 = EDGE_CURVE ( 'NONE', #113, #65, #343, .T. ) ;
#105 = CARTESIAN_POINT ( 'NONE',  ( 23.50000000000000000, -0.7500000000000002220, -0.7500000000000002220 ) ) ;
#106 = ORIENTED_EDGE ( 'NONE', *, *, #107, .F. ) ;
#107 = EDGE_CURVE ( 'NONE', #143, #61, #180, .T. ) ;
#108 = DIRECTION ( 'NONE',  ( 0.000000000000000000, 0.000000000000000000, -1.000000000000000000 ) ) ;
#109 = AXIS2_PLACEMENT_3D ( 'NONE', #60, #300, #200 ) ;
#110 = CARTESIAN_POINT ( 'NONE',  ( -23.50000000000000000, 0.7499999999999998890, 0.7500000000000001110 ) ) ;
#111 = ORIENTED_EDGE ( 'NONE', *, *, #218, .T. ) ;
#112 = SURFACE_STYLE_FILL_AREA ( #302 ) ;
#113 = VERTEX_POINT ( 'NONE', #213 ) ;
#114 = COLOUR_RGB ( '',0.8666666666666666963, 0.9098039215686274384, 1.000000000000000000 ) ;
#115 = EDGE_LOOP ( 'NONE', ( #91, #27, #251, #84 ) ) ;
#116 =( LENGTH_UNIT ( ) NAMED_UNIT ( * ) SI_UNIT ( $, .METRE. ) );
#117 = ORIENTED_EDGE ( 'NONE', *, *, #51, .T. ) ;
#118 = VERTEX_POINT ( 'NONE', #314 ) ;
#119 = EDGE_CURVE ( 'NONE', #169, #113, #345, .T. ) ;
#120 = VECTOR ( 'NONE', #176, 39.37007874015748143 ) ;
#121 = ADVANCED_FACE ( 'NONE', ( #18, #17 ), #262, .T. ) ;
#122 = LINE ( 'NONE', #331, #212 ) ;
#123 = DIRECTION ( 'NONE',  ( 0.000000000000000000, 1.000000000000000000, 1.821231995776175479E-16 ) ) ;
#124 = DIRECTION ( 'NONE',  ( 0.000000000000000000, -9.106159978880877395E-17, 1.000000000000000000 ) ) ;
#125 = EDGE_CURVE ( 'NONE', #34, #225, #337, .T. ) ;
#126 = LINE ( 'NONE', #231, #162 ) ;
#127 = CARTESIAN_POINT ( 'NONE',  ( 23.50000000000000000, -0.7500000000000002220, 0.7499999999999997780 ) ) ;
#128 = PRODUCT ( 'WCP-0284 Rev1', 'WCP-0284 Rev1', '', ( #173 ) ) ;
#129 = PLANE ( 'NONE',  #230 ) ;
#130 = MECHANICAL_DESIGN_GEOMETRIC_PRESENTATION_REPRESENTATION (  '', ( #21 ), #87 ) ;
#131 = CARTESIAN_POINT ( 'NONE',  ( -23.50000000000000000, 0.7499999999999998890, -0.6250000000000000000 ) ) ;
#132 = CARTESIAN_POINT ( 'NONE',  ( 23.50000000000000000, 0.6249999999999998890, -0.6250000000000000000 ) ) ;
#133 = DIRECTION ( 'NONE',  ( 0.000000000000000000, -0.000000000000000000, 1.000000000000000000 ) ) ;
#134 = EDGE_LOOP ( 'NONE', ( #166, #8, #271, #140 ) ) ;
#135 = AXIS2_PLACEMENT_3D ( 'NONE', #304, #328, #204 ) ;
#136 = LINE ( 'NONE', #92, #70 ) ;
#137 = VECTOR ( 'NONE', #254, 39.37007874015748143 ) ;
#138 = ORIENTED_EDGE ( 'NONE', *, *, #334, .T. ) ;
#139 = CARTESIAN_POINT ( 'NONE',  ( 23.50000000000000000, 0.6249999999999998890, -0.6250000000000000000 ) ) ;
#140 = ORIENTED_EDGE ( 'NONE', *, *, #23, .T. ) ;
#141 = VERTEX_POINT ( 'NONE', #127 ) ;
#142 = CARTESIAN_POINT ( 'NONE',  ( 23.50000000000000000, 0.7499999999999998890, -0.7500000000000001110 ) ) ;
#143 = VERTEX_POINT ( 'NONE', #185 ) ;
#144 = SHAPE_DEFINITION_REPRESENTATION ( #289, #149 ) ;
#145 = CARTESIAN_POINT ( 'NONE',  ( 23.50000000000000000, 0.7499999999999998890, 0.7500000000000001110 ) ) ;
#146 = DIRECTION ( 'NONE',  ( -1.000000000000000000, -0.000000000000000000, -0.000000000000000000 ) ) ;
#147 = PRESENTATION_LAYER_ASSIGNMENT (  '', '', ( #21 ) ) ;
#148 = FACE_OUTER_BOUND ( 'NONE', #270, .T. ) ;
#149 = ADVANCED_BREP_SHAPE_REPRESENTATION ( 'WCP-0284 Rev1', ( #96, #135 ), #242 ) ;
#150 = UNCERTAINTY_MEASURE_WITH_UNIT (LENGTH_MEASURE( 1.000000000000000082E-05 ), #260, 'distance_accuracy_value', 'NONE');
#151 = CARTESIAN_POINT ( 'NONE',  ( 23.50000000000000000, 0.7499999999999998890, 0.7500000000000001110 ) ) ;
#152 = AXIS2_PLACEMENT_3D ( 'NONE', #142, #62, #226 ) ;
#153 = LENGTH_MEASURE_WITH_UNIT ( LENGTH_MEASURE( 0.02539999999999999897 ), #333 );
#154 = CARTESIAN_POINT ( 'NONE',  ( -23.50000000000000000, 0.6249999999999998890, -0.6250000000000000000 ) ) ;
#155 = DIRECTION ( 'NONE',  ( 0.000000000000000000, 0.000000000000000000, -1.000000000000000000 ) ) ;
#156 = ORIENTED_EDGE ( 'NONE', *, *, #51, .F. ) ;
#157 = CARTESIAN_POINT ( 'NONE',  ( 23.50000000000000000, 0.7499999999999998890, 0.7500000000000001110 ) ) ;
#158 = ORIENTED_EDGE ( 'NONE', *, *, #329, .T. ) ;
#159 = CARTESIAN_POINT ( 'NONE',  ( -23.50000000000000000, 0.7499999999999998890, 0.6250000000000000000 ) ) ;
#160 = STYLED_ITEM ( 'NONE', ( #6 ), #149 ) ;
#161 = LENGTH_MEASURE_WITH_UNIT ( LENGTH_MEASURE( 0.02539999999999999897 ), #116 );
#162 = VECTOR ( 'NONE', #209, 39.37007874015748143 ) ;
#163 = VERTEX_POINT ( 'NONE', #286 ) ;
#164 = ADVANCED_FACE ( 'NONE', ( #49, #101 ), #129, .F. ) ;
#165 = LINE ( 'NONE', #292, #57 ) ;
#166 = ORIENTED_EDGE ( 'NONE', *, *, #334, .F. ) ;
#167 = EDGE_CURVE ( 'NONE', #321, #169, #24, .T. ) ;
#168 = FACE_OUTER_BOUND ( 'NONE', #203, .T. ) ;
#169 = VERTEX_POINT ( 'NONE', #154 ) ;
#170 = AXIS2_PLACEMENT_3D ( 'NONE', #157, #217, #76 ) ;
#171 = LINE ( 'NONE', #191, #3 ) ;
#172 = ORIENTED_EDGE ( 'NONE', *, *, #181, .T. ) ;
#173 = PRODUCT_CONTEXT ( 'NONE', #198, 'mechanical' ) ;
#174 = ORIENTED_EDGE ( 'NONE', *, *, #245, .F. ) ;
#175 = DIMENSIONAL_EXPONENTS ( 1.000000000000000000, 0.000000000000000000, 0.000000000000000000, 0.000000000000000000, 0.000000000000000000, 0.000000000000000000, 0.000000000000000000 ) ;
#176 = DIRECTION ( 'NONE',  ( 0.000000000000000000, -1.000000000000000000, -1.821231995776175725E-16 ) ) ;
#177 =( NAMED_UNIT ( * ) PLANE_ANGLE_UNIT ( ) SI_UNIT ( $, .RADIAN. ) );
#178 = AXIS2_PLACEMENT_3D ( 'NONE', #22, #189, #108 ) ;
#179 = ADVANCED_FACE ( 'NONE', ( #190 ), #241, .T. ) ;
#180 = LINE ( 'NONE', #236, #340 ) ;
#181 = EDGE_CURVE ( 'NONE', #273, #34, #187, .T. ) ;
#182 = CARTESIAN_POINT ( 'NONE',  ( -23.50000000000000000, 0.7499999999999998890, 0.7500000000000001110 ) ) ;
#183 = VECTOR ( 'NONE', #324, 39.37007874015748143 ) ;
#184 = CARTESIAN_POINT ( 'NONE',  ( 23.50000000000000000, 0.7499999999999998890, -0.7500000000000001110 ) ) ;
#185 = CARTESIAN_POINT ( 'NONE',  ( 23.50000000000000000, -0.6250000000000001110, 0.6249999999999997780 ) ) ;
#186 = DIRECTION ( 'NONE',  ( 0.000000000000000000, 0.000000000000000000, -1.000000000000000000 ) ) ;
#187 = LINE ( 'NONE', #105, #263 ) ;
#188 = ADVANCED_FACE ( 'NONE', ( #238 ), #339, .F. ) ;
#189 = DIRECTION ( 'NONE',  ( 1.000000000000000000, 0.000000000000000000, 0.000000000000000000 ) ) ;
#190 = FACE_OUTER_BOUND ( 'NONE', #115, .T. ) ;
#191 = CARTESIAN_POINT ( 'NONE',  ( 23.50000000000000000, 0.6249999999999998890, 0.6250000000000000000 ) ) ;
#192 = EDGE_LOOP ( 'NONE', ( #30, #347, #32, #172 ) ) ;
#193 = EDGE_CURVE ( 'NONE', #141, #273, #284, .T. ) ;
#194 = PLANE ( 'NONE',  #152 ) ;
#195 = AXIS2_PLACEMENT_3D ( 'NONE', #258, #210, #332 ) ;
#196 = ORIENTED_EDGE ( 'NONE', *, *, #261, .T. ) ;
#197 = FACE_OUTER_BOUND ( 'NONE', #192, .T. ) ;
#198 = APPLICATION_CONTEXT ( 'automotive_design' ) ;
#199 = ORIENTED_EDGE ( 'NONE', *, *, #261, .F. ) ;
#200 = DIRECTION ( 'NONE',  ( 0.000000000000000000, -0.000000000000000000, 1.000000000000000000 ) ) ;
#201 = VERTEX_POINT ( 'NONE', #291 ) ;
#202 = PRODUCT_RELATED_PRODUCT_CATEGORY ( 'part', '', ( #128 ) ) ;
#203 = EDGE_LOOP ( 'NONE', ( #215, #296, #78, #265 ) ) ;
#204 = DIRECTION ( 'NONE',  ( 1.000000000000000000, 0.000000000000000000, 0.000000000000000000 ) ) ;
#205 = LINE ( 'NONE', #73, #307 ) ;
#206 = AXIS2_PLACEMENT_3D ( 'NONE', #54, #266, #133 ) ;
#207 = LINE ( 'NONE', #182, #120 ) ;
#208 = VECTOR ( 'NONE', #98, 39.37007874015748143 ) ;
#209 = DIRECTION ( 'NONE',  ( 0.000000000000000000, 1.000000000000000000, 9.106159978880878627E-17 ) ) ;
#210 = DIRECTION ( 'NONE',  ( 0.000000000000000000, -1.000000000000000000, 0.000000000000000000 ) ) ;
#211 = DIRECTION ( 'NONE',  ( -1.000000000000000000, -0.000000000000000000, -0.000000000000000000 ) ) ;
#212 = VECTOR ( 'NONE', #43, 39.37007874015748143 ) ;
#213 = CARTESIAN_POINT ( 'NONE',  ( -23.50000000000000000, 0.6249999999999998890, 0.6250000000000000000 ) ) ;
#214 = DIRECTION ( 'NONE',  ( 1.000000000000000000, 0.000000000000000000, 0.000000000000000000 ) ) ;
#215 = ORIENTED_EDGE ( 'NONE', *, *, #13, .T. ) ;
#216 = APPLICATION_CONTEXT ( 'automotive_design' ) ;
#217 = DIRECTION ( 'NONE',  ( 0.000000000000000000, -1.000000000000000000, 0.000000000000000000 ) ) ;
#218 = EDGE_CURVE ( 'NONE', #201, #169, #20, .T. ) ;
#219 = CARTESIAN_POINT ( 'NONE',  ( -23.50000000000000000, 0.6249999999999998890, 0.7500000000000001110 ) ) ;
#220 = EDGE_LOOP ( 'NONE', ( #277, #228, #196, #301 ) ) ;
#221 =( LENGTH_UNIT ( ) NAMED_UNIT ( * ) SI_UNIT ( $, .METRE. ) );
#222 = ORIENTED_EDGE ( 'NONE', *, *, #245, .T. ) ;
#223 = LINE ( 'NONE', #295, #287 ) ;
#224 = ORIENTED_EDGE ( 'NONE', *, *, #218, .F. ) ;
#225 = VERTEX_POINT ( 'NONE', #290 ) ;
#226 = DIRECTION ( 'NONE',  ( 0.000000000000000000, -1.000000000000000000, -9.106159978880877395E-17 ) ) ;
#227 = ORIENTED_EDGE ( 'NONE', *, *, #167, .T. ) ;
#228 = ORIENTED_EDGE ( 'NONE', *, *, #1, .T. ) ;
#229 = LINE ( 'NONE', #100, #268 ) ;
#230 = AXIS2_PLACEMENT_3D ( 'NONE', #77, #214, #103 ) ;
#231 = CARTESIAN_POINT ( 'NONE',  ( 23.50000000000000000, 0.7499999999999998890, -0.7500000000000001110 ) ) ;
#232 = ADVANCED_FACE ( 'NONE', ( #240 ), #341, .T. ) ;
#233 = DIRECTION ( 'NONE',  ( 0.000000000000000000, 0.000000000000000000, -1.000000000000000000 ) ) ;
#234 = UNCERTAINTY_MEASURE_WITH_UNIT (LENGTH_MEASURE( 1.000000000000000082E-05 ), #335, 'distance_accuracy_value', 'NONE');
#235 = LINE ( 'NONE', #184, #102 ) ;
#236 = CARTESIAN_POINT ( 'NONE',  ( 23.50000000000000000, -0.6250000000000001110, 0.7499999999999997780 ) ) ;
#237 = VECTOR ( 'NONE', #55, 39.37007874015748143 ) ;
#238 = FACE_OUTER_BOUND ( 'NONE', #253, .T. ) ;
#239 = VECTOR ( 'NONE', #75, 39.37007874015748143 ) ;
#240 = FACE_OUTER_BOUND ( 'NONE', #134, .T. ) ;
#241 = PLANE ( 'NONE',  #338 ) ;
#242 =( GEOMETRIC_REPRESENTATION_CONTEXT ( 3 ) GLOBAL_UNCERTAINTY_ASSIGNED_CONTEXT ( ( #11 ) ) GLOBAL_UNIT_ASSIGNED_CONTEXT ( ( #269, #31, #250 ) ) REPRESENTATION_CONTEXT ( 'NONE', 'WORKASPACE' ) );
#243 = LINE ( 'NONE', #110, #237 ) ;
#244 = ORIENTED_EDGE ( 'NONE', *, *, #104, .T. ) ;
#245 = EDGE_CURVE ( 'NONE', #225, #326, #243, .T. ) ;
#246 = SURFACE_STYLE_USAGE ( .BOTH. , #252 ) ;
#247 = VERTEX_POINT ( 'NONE', #319 ) ;
#248 = ORIENTED_EDGE ( 'NONE', *, *, #79, .F. ) ;
#249 = PRESENTATION_LAYER_ASSIGNMENT (  '', '', ( #160 ) ) ;
#250 =( NAMED_UNIT ( * ) SI_UNIT ( $, .STERADIAN. ) SOLID_ANGLE_UNIT ( ) );
#251 = ORIENTED_EDGE ( 'NONE', *, *, #16, .T. ) ;
#252 = SURFACE_SIDE_STYLE ('',( #112 ) ) ;
#253 = EDGE_LOOP ( 'NONE', ( #222, #248, #63, #59 ) ) ;
#254 = DIRECTION ( 'NONE',  ( 0.000000000000000000, 0.000000000000000000, 1.000000000000000000 ) ) ;
#255 = PLANE ( 'NONE',  #195 ) ;
#256 = COLOUR_RGB ( '',0.8666666666666666963, 0.9098039215686274384, 1.000000000000000000 ) ;
#257 = ADVANCED_FACE ( 'NONE', ( #197 ), #194, .F. ) ;
#258 = CARTESIAN_POINT ( 'NONE',  ( 23.50000000000000000, 0.6249999999999998890, 0.7500000000000001110 ) ) ;
#259 = FILL_AREA_STYLE ('',( #281 ) ) ;
#260 =( CONVERSION_BASED_UNIT ( 'INCH', #153 ) LENGTH_UNIT ( ) NAMED_UNIT ( #42 ) );
#261 = EDGE_CURVE ( 'NONE', #163, #141, #320, .T. ) ;
#262 = PLANE ( 'NONE',  #178 ) ;
#263 = VECTOR ( 'NONE', #264, 39.37007874015748143 ) ;
#264 = DIRECTION ( 'NONE',  ( -1.000000000000000000, -0.000000000000000000, -0.000000000000000000 ) ) ;
#265 = ORIENTED_EDGE ( 'NONE', *, *, #285, .T. ) ;
#266 = DIRECTION ( 'NONE',  ( -0.000000000000000000, 1.000000000000000000, 0.000000000000000000 ) ) ;
#267 = FILL_AREA_STYLE_COLOUR ( '', #114 ) ;
#268 = VECTOR ( 'NONE', #9, 39.37007874015748143 ) ;
#269 =( CONVERSION_BASED_UNIT ( 'INCH', #161 ) LENGTH_UNIT ( ) NAMED_UNIT ( #274 ) );
#270 = EDGE_LOOP ( 'NONE', ( #117, #67, #199, #346 ) ) ;
#271 = ORIENTED_EDGE ( 'NONE', *, *, #107, .T. ) ;
#272 = DIRECTION ( 'NONE',  ( -1.000000000000000000, -0.000000000000000000, -0.000000000000000000 ) ) ;
#273 = VERTEX_POINT ( 'NONE', #58 ) ;
#274 = DIMENSIONAL_EXPONENTS ( 1.000000000000000000, 0.000000000000000000, 0.000000000000000000, 0.000000000000000000, 0.000000000000000000, 0.000000000000000000, 0.000000000000000000 ) ;
#275 = DIRECTION ( 'NONE',  ( 0.000000000000000000, -1.000000000000000000, -1.821231995776175725E-16 ) ) ;
#276 = ORIENTED_EDGE ( 'NONE', *, *, #82, .T. ) ;
#277 = ORIENTED_EDGE ( 'NONE', *, *, #56, .T. ) ;
#278 = CARTESIAN_POINT ( 'NONE',  ( -23.50000000000000000, -0.7500000000000002220, -0.7500000000000002220 ) ) ;
#279 = APPLICATION_PROTOCOL_DEFINITION ( 'draft international standard', 'automotive_design', 1998, #216 ) ;
#280 = VECTOR ( 'NONE', #146, 39.37007874015748143 ) ;
#281 = FILL_AREA_STYLE_COLOUR ( '', #256 ) ;
#282 = LINE ( 'NONE', #308, #280 ) ;
#283 = SURFACE_STYLE_FILL_AREA ( #259 ) ;
#284 = LINE ( 'NONE', #317, #19 ) ;
#285 = EDGE_CURVE ( 'NONE', #141, #93, #223, .T. ) ;
#286 = CARTESIAN_POINT ( 'NONE',  ( 23.50000000000000000, 0.7499999999999998890, 0.7500000000000001110 ) ) ;
#287 = VECTOR ( 'NONE', #85, 39.37007874015748143 ) ;
#288 = CARTESIAN_POINT ( 'NONE',  ( 23.50000000000000000, 0.7499999999999998890, 0.6250000000000000000 ) ) ;
#289 = PRODUCT_DEFINITION_SHAPE ( 'NONE', 'NONE',  #299 ) ;
#290 = CARTESIAN_POINT ( 'NONE',  ( -23.50000000000000000, 0.7499999999999998890, -0.7500000000000001110 ) ) ;
#291 = CARTESIAN_POINT ( 'NONE',  ( -23.50000000000000000, -0.6250000000000001110, -0.6250000000000001110 ) ) ;
#292 = CARTESIAN_POINT ( 'NONE',  ( 23.50000000000000000, -0.6250000000000001110, 0.6249999999999997780 ) ) ;
#293 = ORIENTED_EDGE ( 'NONE', *, *, #315, .F. ) ;
#294 = VECTOR ( 'NONE', #52, 39.37007874015748143 ) ;
#295 = CARTESIAN_POINT ( 'NONE',  ( 23.50000000000000000, -0.7500000000000002220, 0.7499999999999997780 ) ) ;
#296 = ORIENTED_EDGE ( 'NONE', *, *, #181, .F. ) ;
#297 = CARTESIAN_POINT ( 'NONE',  ( 23.50000000000000000, 0.7499999999999998890, 0.7500000000000001110 ) ) ;
#298 = ORIENTED_EDGE ( 'NONE', *, *, #82, .F. ) ;
#299 = PRODUCT_DEFINITION ( 'UNKNOWN', '', #45, #309 ) ;
#300 = DIRECTION ( 'NONE',  ( -0.000000000000000000, 1.000000000000000000, 0.000000000000000000 ) ) ;
#301 = ORIENTED_EDGE ( 'NONE', *, *, #193, .T. ) ;
#302 = FILL_AREA_STYLE ('',( #267 ) ) ;
#303 = ORIENTED_EDGE ( 'NONE', *, *, #23, .F. ) ;
#304 = CARTESIAN_POINT ( 'NONE',  ( 0.000000000000000000, 0.000000000000000000, 0.000000000000000000 ) ) ;
#305 = DIRECTION ( 'NONE',  ( -1.000000000000000000, -0.000000000000000000, -0.000000000000000000 ) ) ;
#306 = MECHANICAL_DESIGN_GEOMETRIC_PRESENTATION_REPRESENTATION (  '', ( #160 ), #25 ) ;
#307 = VECTOR ( 'NONE', #233, 39.37007874015748143 ) ;
#308 = CARTESIAN_POINT ( 'NONE',  ( 23.50000000000000000, 0.7499999999999998890, 0.7500000000000001110 ) ) ;
#309 = PRODUCT_DEFINITION_CONTEXT ( 'detailed design', #216, 'design' ) ;
#310 = LINE ( 'NONE', #99, #208 ) ;
#311 = CARTESIAN_POINT ( 'NONE',  ( 23.50000000000000000, 0.7499999999999998890, -0.6250000000000000000 ) ) ;
#312 = DIRECTION ( 'NONE',  ( 0.000000000000000000, 1.000000000000000000, 9.106159978880878627E-17 ) ) ;
#313 = AXIS2_PLACEMENT_3D ( 'NONE', #311, #124, #94 ) ;
#314 = CARTESIAN_POINT ( 'NONE',  ( 23.50000000000000000, 0.7499999999999998890, -0.7500000000000001110 ) ) ;
#315 = EDGE_CURVE ( 'NONE', #61, #321, #83, .T. ) ;
#316 = DIRECTION ( 'NONE',  ( 0.000000000000000000, 1.000000000000000000, 9.106159978880877395E-17 ) ) ;
#317 = CARTESIAN_POINT ( 'NONE',  ( 23.50000000000000000, -0.7500000000000002220, 0.7499999999999997780 ) ) ;
#318 = ADVANCED_FACE ( 'NONE', ( #168 ), #66, .F. ) ;
#319 = CARTESIAN_POINT ( 'NONE',  ( 23.50000000000000000, 0.6249999999999998890, 0.6250000000000000000 ) ) ;
#320 = LINE ( 'NONE', #297, #50 ) ;
#321 = VERTEX_POINT ( 'NONE', #139 ) ;
#322 = CARTESIAN_POINT ( 'NONE',  ( 23.50000000000000000, 0.7499999999999998890, -0.6250000000000000000 ) ) ;
#323 = ORIENTED_EDGE ( 'NONE', *, *, #16, .F. ) ;
#324 = DIRECTION ( 'NONE',  ( 0.000000000000000000, 1.000000000000000000, 9.106159978880877395E-17 ) ) ;
#325 = EDGE_LOOP ( 'NONE', ( #111, #7, #244, #138 ) ) ;
#326 = VERTEX_POINT ( 'NONE', #64 ) ;
#327 = ORIENTED_EDGE ( 'NONE', *, *, #167, .F. ) ;
#328 = DIRECTION ( 'NONE',  ( 0.000000000000000000, 0.000000000000000000, 1.000000000000000000 ) ) ;
#329 = EDGE_CURVE ( 'NONE', #247, #113, #171, .T. ) ;
#330 = FACE_OUTER_BOUND ( 'NONE', #2, .T. ) ;
#331 = CARTESIAN_POINT ( 'NONE',  ( 23.50000000000000000, 0.6249999999999998890, 0.7500000000000001110 ) ) ;
#332 = DIRECTION ( 'NONE',  ( 0.000000000000000000, -0.000000000000000000, -1.000000000000000000 ) ) ;
#333 =( LENGTH_UNIT ( ) NAMED_UNIT ( * ) SI_UNIT ( $, .METRE. ) );
#334 = EDGE_CURVE ( 'NONE', #65, #201, #136, .T. ) ;
#335 =( CONVERSION_BASED_UNIT ( 'INCH', #26 ) LENGTH_UNIT ( ) NAMED_UNIT ( #175 ) );
#336 = FACE_OUTER_BOUND ( 'NONE', #86, .T. ) ;
#337 = LINE ( 'NONE', #48, #29 ) ;
#338 = AXIS2_PLACEMENT_3D ( 'NONE', #288, #81, #80 ) ;
#339 = PLANE ( 'NONE',  #170 ) ;
#340 = VECTOR ( 'NONE', #155, 39.37007874015748143 ) ;
#341 = PLANE ( 'NONE',  #206 ) ;
#342 = EDGE_LOOP ( 'NONE', ( #4, #36, #156, #174 ) ) ;
#343 = LINE ( 'NONE', #159, #294 ) ;
#344 = EDGE_CURVE ( 'NONE', #143, #65, #165, .T. ) ;
#345 = LINE ( 'NONE', #219, #239 ) ;
#346 = ORIENTED_EDGE ( 'NONE', *, *, #79, .T. ) ;
#347 = ORIENTED_EDGE ( 'NONE', *, *, #95, .F. ) ;
ENDSEC;
END-ISO-10303-21;
