ISO-10303-21;
HEADER;
FILE_DESCRIPTION (( 'STEP AP214' ),
    '1' );
FILE_NAME ('WCP-0283 Rev1.step',
    '2024-01-15T23:02:51',
    ( '' ),
    ( '' ),
    'SwSTEP 2.0',
    'SolidWorks 2022',
    '' );
FILE_SCHEMA (( 'AUTOMOTIVE_DESIGN' ));
ENDSEC;

DATA;
#1 = CARTESIAN_POINT ( 'NONE',  ( 23.50000000000000000, 0.7499999999999998890, 0.7500000000000001110 ) ) ;
#2 = LINE ( 'NONE', #123, #249 ) ;
#3 = PRODUCT_CONTEXT ( 'NONE', #83, 'mechanical' ) ;
#4 = DIRECTION ( 'NONE',  ( -1.000000000000000000, -0.000000000000000000, -0.000000000000000000 ) ) ;
#5 = CARTESIAN_POINT ( 'NONE',  ( 23.50000000000000000, -0.6875000000000002220, -0.6875000000000002220 ) ) ;
#6 = CARTESIAN_POINT ( 'NONE',  ( 23.50000000000000000, 0.7499999999999998890, 0.7500000000000001110 ) ) ;
#7 = VECTOR ( 'NONE', #124, 39.37007874015748143 ) ;
#8 = DIRECTION ( 'NONE',  ( 0.000000000000000000, 0.000000000000000000, 1.000000000000000000 ) ) ;
#9 = LINE ( 'NONE', #335, #43 ) ;
#10 = VECTOR ( 'NONE', #334, 39.37007874015748143 ) ;
#11 = ORIENTED_EDGE ( 'NONE', *, *, #54, .F. ) ;
#12 = VERTEX_POINT ( 'NONE', #17 ) ;
#13 = ORIENTED_EDGE ( 'NONE', *, *, #128, .F. ) ;
#14 = LENGTH_MEASURE_WITH_UNIT ( LENGTH_MEASURE( 0.02539999999999999897 ), #72 );
#15 = VECTOR ( 'NONE', #265, 39.37007874015748143 ) ;
#16 = DIRECTION ( 'NONE',  ( -1.000000000000000000, -0.000000000000000000, -0.000000000000000000 ) ) ;
#17 = CARTESIAN_POINT ( 'NONE',  ( -23.50000000000000000, 0.6875000000000000000, -0.6875000000000001110 ) ) ;
#18 = CARTESIAN_POINT ( 'NONE',  ( 23.50000000000000000, 0.7499999999999998890, 0.7500000000000001110 ) ) ;
#19 = PLANE ( 'NONE',  #284 ) ;
#20 = EDGE_CURVE ( 'NONE', #198, #321, #325, .T. ) ;
#21 = FILL_AREA_STYLE_COLOUR ( '', #146 ) ;
#22 = VECTOR ( 'NONE', #270, 39.37007874015748143 ) ;
#23 = DIRECTION ( 'NONE',  ( 0.000000000000000000, 1.000000000000000000, 1.821231995776175479E-16 ) ) ;
#24 = VERTEX_POINT ( 'NONE', #234 ) ;
#25 = DIRECTION ( 'NONE',  ( 0.000000000000000000, -1.000000000000000000, -1.821231995776175725E-16 ) ) ;
#26 = APPLICATION_PROTOCOL_DEFINITION ( 'draft international standard', 'automotive_design', 1998, #83 ) ;
#27 = EDGE_CURVE ( 'NONE', #95, #24, #129, .T. ) ;
#28 = CARTESIAN_POINT ( 'NONE',  ( -23.50000000000000000, 0.7499999999999998890, -0.6875000000000001110 ) ) ;
#29 = LINE ( 'NONE', #28, #336 ) ;
#30 = UNCERTAINTY_MEASURE_WITH_UNIT (LENGTH_MEASURE( 1.000000000000000082E-05 ), #68, 'distance_accuracy_value', 'NONE');
#31 = CARTESIAN_POINT ( 'NONE',  ( 23.50000000000000000, 0.6875000000000000000, -0.6875000000000001110 ) ) ;
#32 = DIRECTION ( 'NONE',  ( -1.000000000000000000, -0.000000000000000000, -0.000000000000000000 ) ) ;
#33 = AXIS2_PLACEMENT_3D ( 'NONE', #269, #45, #160 ) ;
#34 = DIRECTION ( 'NONE',  ( 0.000000000000000000, -0.000000000000000000, 1.000000000000000000 ) ) ;
#35 = CARTESIAN_POINT ( 'NONE',  ( 23.50000000000000000, 0.6875000000000000000, 0.7500000000000001110 ) ) ;
#36 = ORIENTED_EDGE ( 'NONE', *, *, #253, .F. ) ;
#37 = VERTEX_POINT ( 'NONE', #97 ) ;
#38 = ORIENTED_EDGE ( 'NONE', *, *, #280, .F. ) ;
#39 = ADVANCED_FACE ( 'NONE', ( #322, #235 ), #131, .T. ) ;
#40 = VERTEX_POINT ( 'NONE', #50 ) ;
#41 = LINE ( 'NONE', #262, #140 ) ;
#42 =( NAMED_UNIT ( * ) PLANE_ANGLE_UNIT ( ) SI_UNIT ( $, .RADIAN. ) );
#43 = VECTOR ( 'NONE', #113, 39.37007874015748143 ) ;
#44 = ORIENTED_EDGE ( 'NONE', *, *, #142, .F. ) ;
#45 = DIRECTION ( 'NONE',  ( 0.000000000000000000, -9.106159978880877395E-17, 1.000000000000000000 ) ) ;
#46 = CARTESIAN_POINT ( 'NONE',  ( 23.50000000000000000, -0.7500000000000002220, -0.7500000000000002220 ) ) ;
#47 = EDGE_CURVE ( 'NONE', #40, #95, #71, .T. ) ;
#48 = CARTESIAN_POINT ( 'NONE',  ( -23.50000000000000000, -0.7500000000000002220, -0.7500000000000002220 ) ) ;
#49 = VERTEX_POINT ( 'NONE', #242 ) ;
#50 = CARTESIAN_POINT ( 'NONE',  ( 23.50000000000000000, 0.7499999999999998890, -0.7500000000000001110 ) ) ;
#51 = FACE_OUTER_BOUND ( 'NONE', #103, .T. ) ;
#52 = LINE ( 'NONE', #275, #221 ) ;
#53 = VECTOR ( 'NONE', #297, 39.37007874015748143 ) ;
#54 = EDGE_CURVE ( 'NONE', #187, #321, #106, .T. ) ;
#55 = LINE ( 'NONE', #167, #110 ) ;
#56 = CARTESIAN_POINT ( 'NONE',  ( 0.000000000000000000, 0.000000000000000000, 0.000000000000000000 ) ) ;
#57 = LINE ( 'NONE', #218, #10 ) ;
#58 = DIRECTION ( 'NONE',  ( 0.000000000000000000, -0.000000000000000000, 1.000000000000000000 ) ) ;
#59 = VECTOR ( 'NONE', #241, 39.37007874015748143 ) ;
#60 = DIRECTION ( 'NONE',  ( 0.000000000000000000, 0.000000000000000000, -1.000000000000000000 ) ) ;
#61 = EDGE_CURVE ( 'NONE', #37, #49, #2, .T. ) ;
#62 = ORIENTED_EDGE ( 'NONE', *, *, #54, .T. ) ;
#63 = COLOUR_RGB ( '',0.8666666666666666963, 0.9098039215686274384, 1.000000000000000000 ) ;
#64 = EDGE_CURVE ( 'NONE', #79, #40, #216, .T. ) ;
#65 = ORIENTED_EDGE ( 'NONE', *, *, #47, .F. ) ;
#66 = ORIENTED_EDGE ( 'NONE', *, *, #253, .T. ) ;
#67 = CARTESIAN_POINT ( 'NONE',  ( 23.50000000000000000, 0.7499999999999998890, 0.7500000000000001110 ) ) ;
#68 =( CONVERSION_BASED_UNIT ( 'INCH', #151 ) LENGTH_UNIT ( ) NAMED_UNIT ( #277 ) );
#69 = ORIENTED_EDGE ( 'NONE', *, *, #20, .T. ) ;
#70 = CARTESIAN_POINT ( 'NONE',  ( -23.50000000000000000, -0.6875000000000002220, -0.6875000000000002220 ) ) ;
#71 = LINE ( 'NONE', #163, #22 ) ;
#72 =( LENGTH_UNIT ( ) NAMED_UNIT ( * ) SI_UNIT ( $, .METRE. ) );
#73 = EDGE_CURVE ( 'NONE', #198, #121, #152, .T. ) ;
#74 = ADVANCED_BREP_SHAPE_REPRESENTATION ( 'WCP-0283 Rev1', ( #320, #323 ), #191 ) ;
#75 = CARTESIAN_POINT ( 'NONE',  ( 23.50000000000000000, -0.6875000000000002220, -0.6875000000000002220 ) ) ;
#76 = PRESENTATION_STYLE_ASSIGNMENT (( #149 ) ) ;
#77 = EDGE_LOOP ( 'NONE', ( #148, #118, #263, #38 ) ) ;
#78 =( NAMED_UNIT ( * ) PLANE_ANGLE_UNIT ( ) SI_UNIT ( $, .RADIAN. ) );
#79 = VERTEX_POINT ( 'NONE', #46 ) ;
#80 = CARTESIAN_POINT ( 'NONE',  ( 23.50000000000000000, 0.7499999999999998890, -0.7500000000000001110 ) ) ;
#81 = DIRECTION ( 'NONE',  ( 0.000000000000000000, 0.000000000000000000, 1.000000000000000000 ) ) ;
#82 = CARTESIAN_POINT ( 'NONE',  ( 23.50000000000000000, -0.7500000000000002220, -0.7500000000000002220 ) ) ;
#83 = APPLICATION_CONTEXT ( 'automotive_design' ) ;
#84 = ADVANCED_FACE ( 'NONE', ( #155 ), #19, .F. ) ;
#85 = DIRECTION ( 'NONE',  ( -1.000000000000000000, -0.000000000000000000, -0.000000000000000000 ) ) ;
#86 = DIRECTION ( 'NONE',  ( -0.000000000000000000, 1.000000000000000000, 0.000000000000000000 ) ) ;
#87 = LINE ( 'NONE', #194, #209 ) ;
#88 = CARTESIAN_POINT ( 'NONE',  ( -23.50000000000000000, 0.6875000000000000000, 0.7500000000000001110 ) ) ;
#89 = EDGE_CURVE ( 'NONE', #340, #187, #317, .T. ) ;
#90 = ORIENTED_EDGE ( 'NONE', *, *, #128, .T. ) ;
#91 = EDGE_LOOP ( 'NONE', ( #11, #347, #286, #69 ) ) ;
#92 = PRODUCT_DEFINITION ( 'UNKNOWN', '', #315, #247 ) ;
#93 = VECTOR ( 'NONE', #4, 39.37007874015748143 ) ;
#94 = VERTEX_POINT ( 'NONE', #48 ) ;
#95 = VERTEX_POINT ( 'NONE', #6 ) ;
#96 = PLANE ( 'NONE',  #299 ) ;
#97 = CARTESIAN_POINT ( 'NONE',  ( -23.50000000000000000, 0.7499999999999998890, -0.7500000000000001110 ) ) ;
#98 = EDGE_CURVE ( 'NONE', #40, #37, #276, .T. ) ;
#99 =( NAMED_UNIT ( * ) SI_UNIT ( $, .STERADIAN. ) SOLID_ANGLE_UNIT ( ) );
#100 =( GEOMETRIC_REPRESENTATION_CONTEXT ( 3 ) GLOBAL_UNCERTAINTY_ASSIGNED_CONTEXT ( ( #200 ) ) GLOBAL_UNIT_ASSIGNED_CONTEXT ( ( #156, #78, #318 ) ) REPRESENTATION_CONTEXT ( 'NONE', 'WORKASPACE' ) );
#101 = DIRECTION ( 'NONE',  ( 0.000000000000000000, 1.821231995776175479E-16, -1.000000000000000000 ) ) ;
#102 = FACE_OUTER_BOUND ( 'NONE', #282, .T. ) ;
#103 = EDGE_LOOP ( 'NONE', ( #207, #341, #104, #114 ) ) ;
#104 = ORIENTED_EDGE ( 'NONE', *, *, #165, .F. ) ;
#105 = VECTOR ( 'NONE', #32, 39.37007874015748143 ) ;
#106 = LINE ( 'NONE', #313, #7 ) ;
#107 = DIRECTION ( 'NONE',  ( 0.000000000000000000, 0.000000000000000000, -1.000000000000000000 ) ) ;
#108 = DIRECTION ( 'NONE',  ( 0.000000000000000000, -1.000000000000000000, -1.821231995776175479E-16 ) ) ;
#109 = DIRECTION ( 'NONE',  ( 1.000000000000000000, 0.000000000000000000, 0.000000000000000000 ) ) ;
#110 = VECTOR ( 'NONE', #246, 39.37007874015748143 ) ;
#111 = CARTESIAN_POINT ( 'NONE',  ( 23.50000000000000000, -0.6875000000000002220, 0.7499999999999997780 ) ) ;
#112 = ADVANCED_FACE ( 'NONE', ( #51, #250 ), #168, .F. ) ;
#113 = DIRECTION ( 'NONE',  ( 0.000000000000000000, -1.000000000000000000, -1.821231995776175479E-16 ) ) ;
#114 = ORIENTED_EDGE ( 'NONE', *, *, #61, .F. ) ;
#115 = VECTOR ( 'NONE', #196, 39.37007874015748143 ) ;
#116 = ORIENTED_EDGE ( 'NONE', *, *, #311, .T. ) ;
#117 = EDGE_CURVE ( 'NONE', #24, #79, #55, .T. ) ;
#118 = ORIENTED_EDGE ( 'NONE', *, *, #73, .F. ) ;
#119 = ORIENTED_EDGE ( 'NONE', *, *, #27, .F. ) ;
#120 =( GEOMETRIC_REPRESENTATION_CONTEXT ( 3 ) GLOBAL_UNCERTAINTY_ASSIGNED_CONTEXT ( ( #195 ) ) GLOBAL_UNIT_ASSIGNED_CONTEXT ( ( #324, #138, #273 ) ) REPRESENTATION_CONTEXT ( 'NONE', 'WORKASPACE' ) );
#121 = VERTEX_POINT ( 'NONE', #31 ) ;
#122 = FACE_OUTER_BOUND ( 'NONE', #308, .T. ) ;
#123 = CARTESIAN_POINT ( 'NONE',  ( -23.50000000000000000, 0.7499999999999998890, 0.7500000000000001110 ) ) ;
#124 = DIRECTION ( 'NONE',  ( 0.000000000000000000, 0.000000000000000000, -1.000000000000000000 ) ) ;
#125 = AXIS2_PLACEMENT_3D ( 'NONE', #111, #86, #34 ) ;
#126 = ORIENTED_EDGE ( 'NONE', *, *, #204, .F. ) ;
#127 = LINE ( 'NONE', #18, #197 ) ;
#128 = EDGE_CURVE ( 'NONE', #147, #179, #331, .T. ) ;
#129 = LINE ( 'NONE', #1, #267 ) ;
#130 = DIRECTION ( 'NONE',  ( 0.000000000000000000, -0.000000000000000000, -1.000000000000000000 ) ) ;
#131 = PLANE ( 'NONE',  #283 ) ;
#132 = SHAPE_DEFINITION_REPRESENTATION ( #158, #74 ) ;
#133 = CLOSED_SHELL ( 'NONE', ( #39, #112, #339, #328, #84, #220, #342, #300, #227, #174 ) ) ;
#134 = CARTESIAN_POINT ( 'NONE',  ( 23.50000000000000000, -0.7500000000000002220, 0.7499999999999997780 ) ) ;
#135 = DIRECTION ( 'NONE',  ( -0.000000000000000000, 1.000000000000000000, 0.000000000000000000 ) ) ;
#136 = SURFACE_STYLE_FILL_AREA ( #223 ) ;
#137 = CARTESIAN_POINT ( 'NONE',  ( 23.50000000000000000, 0.6875000000000000000, 0.6875000000000001110 ) ) ;
#138 =( NAMED_UNIT ( * ) PLANE_ANGLE_UNIT ( ) SI_UNIT ( $, .RADIAN. ) );
#139 = FACE_OUTER_BOUND ( 'NONE', #201, .T. ) ;
#140 = VECTOR ( 'NONE', #16, 39.37007874015748143 ) ;
#141 = FILL_AREA_STYLE_COLOUR ( '', #63 ) ;
#142 = EDGE_CURVE ( 'NONE', #121, #12, #171, .T. ) ;
#143 = FACE_OUTER_BOUND ( 'NONE', #91, .T. ) ;
#144 = CARTESIAN_POINT ( 'NONE',  ( 23.50000000000000000, -0.6875000000000002220, 0.7499999999999997780 ) ) ;
#145 = ORIENTED_EDGE ( 'NONE', *, *, #117, .T. ) ;
#146 = COLOUR_RGB ( '',0.8666666666666666963, 0.9098039215686274384, 1.000000000000000000 ) ;
#147 = VERTEX_POINT ( 'NONE', #137 ) ;
#148 = ORIENTED_EDGE ( 'NONE', *, *, #183, .F. ) ;
#149 = SURFACE_STYLE_USAGE ( .BOTH. , #239 ) ;
#150 = VECTOR ( 'NONE', #60, 39.37007874015748143 ) ;
#151 = LENGTH_MEASURE_WITH_UNIT ( LENGTH_MEASURE( 0.02539999999999999897 ), #206 );
#152 = LINE ( 'NONE', #182, #15 ) ;
#153 = CARTESIAN_POINT ( 'NONE',  ( 23.50000000000000000, -0.6875000000000002220, 0.6874999999999998890 ) ) ;
#154 = LINE ( 'NONE', #212, #59 ) ;
#155 = FACE_OUTER_BOUND ( 'NONE', #175, .T. ) ;
#156 =( CONVERSION_BASED_UNIT ( 'INCH', #14 ) LENGTH_UNIT ( ) NAMED_UNIT ( #326 ) );
#157 = FACE_OUTER_BOUND ( 'NONE', #230, .T. ) ;
#158 = PRODUCT_DEFINITION_SHAPE ( 'NONE', 'NONE',  #92 ) ;
#159 = CARTESIAN_POINT ( 'NONE',  ( 23.50000000000000000, 0.000000000000000000, 0.000000000000000000 ) ) ;
#160 = DIRECTION ( 'NONE',  ( 0.000000000000000000, -1.000000000000000000, -9.106159978880877395E-17 ) ) ;
#161 = PRESENTATION_LAYER_ASSIGNMENT (  '', '', ( #307 ) ) ;
#162 = LINE ( 'NONE', #88, #115 ) ;
#163 = CARTESIAN_POINT ( 'NONE',  ( 23.50000000000000000, 0.7499999999999998890, 0.7500000000000001110 ) ) ;
#164 = CARTESIAN_POINT ( 'NONE',  ( -23.50000000000000000, 0.6875000000000000000, 0.6875000000000001110 ) ) ;
#165 = EDGE_CURVE ( 'NONE', #49, #256, #57, .T. ) ;
#166 = STYLED_ITEM ( 'NONE', ( #76 ), #320 ) ;
#167 = CARTESIAN_POINT ( 'NONE',  ( 23.50000000000000000, -0.7500000000000002220, 0.7499999999999997780 ) ) ;
#168 = PLANE ( 'NONE',  #215 ) ;
#169 = SURFACE_STYLE_USAGE ( .BOTH. , #243 ) ;
#170 = CARTESIAN_POINT ( 'NONE',  ( -23.50000000000000000, -0.6875000000000002220, 0.6874999999999998890 ) ) ;
#171 = LINE ( 'NONE', #219, #274 ) ;
#172 = FACE_OUTER_BOUND ( 'NONE', #309, .T. ) ;
#173 = ORIENTED_EDGE ( 'NONE', *, *, #258, .F. ) ;
#174 = ADVANCED_FACE ( 'NONE', ( #143 ), #279, .T. ) ;
#175 = EDGE_LOOP ( 'NONE', ( #228, #208, #119, #116 ) ) ;
#176 = AXIS2_PLACEMENT_3D ( 'NONE', #134, #135, #58 ) ;
#177 = ORIENTED_EDGE ( 'NONE', *, *, #333, .T. ) ;
#178 = DIRECTION ( 'NONE',  ( 0.000000000000000000, -1.000000000000000000, 0.000000000000000000 ) ) ;
#179 = VERTEX_POINT ( 'NONE', #164 ) ;
#180 = DIRECTION ( 'NONE',  ( 0.000000000000000000, -9.106159978880877395E-17, 1.000000000000000000 ) ) ;
#181 = VECTOR ( 'NONE', #268, 39.37007874015748143 ) ;
#182 = CARTESIAN_POINT ( 'NONE',  ( 23.50000000000000000, 0.7499999999999998890, -0.6875000000000001110 ) ) ;
#183 = EDGE_CURVE ( 'NONE', #121, #147, #248, .T. ) ;
#184 = CARTESIAN_POINT ( 'NONE',  ( 23.50000000000000000, -0.6875000000000002220, 0.6874999999999998890 ) ) ;
#185 = ORIENTED_EDGE ( 'NONE', *, *, #98, .F. ) ;
#186 = ORIENTED_EDGE ( 'NONE', *, *, #280, .T. ) ;
#187 = VERTEX_POINT ( 'NONE', #170 ) ;
#188 = PRESENTATION_STYLE_ASSIGNMENT (( #169 ) ) ;
#189 = DIRECTION ( 'NONE',  ( 0.000000000000000000, 1.821231995776175479E-16, -1.000000000000000000 ) ) ;
#190 = APPLICATION_PROTOCOL_DEFINITION ( 'draft international standard', 'automotive_design', 1998, #214 ) ;
#191 =( GEOMETRIC_REPRESENTATION_CONTEXT ( 3 ) GLOBAL_UNCERTAINTY_ASSIGNED_CONTEXT ( ( #30 ) ) GLOBAL_UNIT_ASSIGNED_CONTEXT ( ( #68, #42, #99 ) ) REPRESENTATION_CONTEXT ( 'NONE', 'WORKASPACE' ) );
#192 = FACE_OUTER_BOUND ( 'NONE', #240, .T. ) ;
#193 = CARTESIAN_POINT ( 'NONE',  ( 23.50000000000000000, 0.6875000000000000000, 0.7500000000000001110 ) ) ;
#194 = CARTESIAN_POINT ( 'NONE',  ( -23.50000000000000000, -0.7500000000000002220, 0.7499999999999997780 ) ) ;
#195 = UNCERTAINTY_MEASURE_WITH_UNIT (LENGTH_MEASURE( 1.000000000000000082E-05 ), #324, 'distance_accuracy_value', 'NONE');
#196 = DIRECTION ( 'NONE',  ( 0.000000000000000000, 0.000000000000000000, 1.000000000000000000 ) ) ;
#197 = VECTOR ( 'NONE', #310, 39.37007874015748143 ) ;
#198 = VERTEX_POINT ( 'NONE', #5 ) ;
#199 = EDGE_CURVE ( 'NONE', #256, #94, #87, .T. ) ;
#200 = UNCERTAINTY_MEASURE_WITH_UNIT (LENGTH_MEASURE( 1.000000000000000082E-05 ), #156, 'distance_accuracy_value', 'NONE');
#201 = EDGE_LOOP ( 'NONE', ( #295, #126, #288, #177 ) ) ;
#202 = ORIENTED_EDGE ( 'NONE', *, *, #236, .T. ) ;
#203 = MECHANICAL_DESIGN_GEOMETRIC_PRESENTATION_REPRESENTATION (  '', ( #307 ), #120 ) ;
#204 = EDGE_CURVE ( 'NONE', #79, #94, #327, .T. ) ;
#205 = ORIENTED_EDGE ( 'NONE', *, *, #183, .T. ) ;
#206 =( LENGTH_UNIT ( ) NAMED_UNIT ( * ) SI_UNIT ( $, .METRE. ) );
#207 = ORIENTED_EDGE ( 'NONE', *, *, #346, .F. ) ;
#208 = ORIENTED_EDGE ( 'NONE', *, *, #333, .F. ) ;
#209 = VECTOR ( 'NONE', #278, 39.37007874015748143 ) ;
#210 = ORIENTED_EDGE ( 'NONE', *, *, #61, .T. ) ;
#211 = ORIENTED_EDGE ( 'NONE', *, *, #89, .T. ) ;
#212 = CARTESIAN_POINT ( 'NONE',  ( -23.50000000000000000, 0.7499999999999998890, -0.7500000000000001110 ) ) ;
#213 = ORIENTED_EDGE ( 'NONE', *, *, #64, .T. ) ;
#214 = APPLICATION_CONTEXT ( 'automotive_design' ) ;
#215 = AXIS2_PLACEMENT_3D ( 'NONE', #222, #109, #107 ) ;
#216 = LINE ( 'NONE', #80, #53 ) ;
#217 = DIMENSIONAL_EXPONENTS ( 1.000000000000000000, 0.000000000000000000, 0.000000000000000000, 0.000000000000000000, 0.000000000000000000, 0.000000000000000000, 0.000000000000000000 ) ;
#218 = CARTESIAN_POINT ( 'NONE',  ( -23.50000000000000000, 0.7499999999999998890, 0.7500000000000001110 ) ) ;
#219 = CARTESIAN_POINT ( 'NONE',  ( 23.50000000000000000, 0.6875000000000000000, -0.6875000000000001110 ) ) ;
#220 = ADVANCED_FACE ( 'NONE', ( #139 ), #303, .F. ) ;
#221 = VECTOR ( 'NONE', #108, 39.37007874015748143 ) ;
#222 = CARTESIAN_POINT ( 'NONE',  ( -23.50000000000000000, 0.000000000000000000, 0.000000000000000000 ) ) ;
#223 = FILL_AREA_STYLE ('',( #141 ) ) ;
#224 = CARTESIAN_POINT ( 'NONE',  ( 23.50000000000000000, 0.6875000000000000000, 0.6875000000000001110 ) ) ;
#225 = PLANE ( 'NONE',  #314 ) ;
#226 = ORIENTED_EDGE ( 'NONE', *, *, #27, .T. ) ;
#227 = ADVANCED_FACE ( 'NONE', ( #192 ), #225, .T. ) ;
#228 = ORIENTED_EDGE ( 'NONE', *, *, #165, .T. ) ;
#229 = EDGE_LOOP ( 'NONE', ( #213, #233, #226, #145 ) ) ;
#230 = EDGE_LOOP ( 'NONE', ( #173, #343, #238, #338 ) ) ;
#231 = VECTOR ( 'NONE', #294, 39.37007874015748143 ) ;
#232 = PRODUCT ( 'WCP-0283 Rev1', 'WCP-0283 Rev1', '', ( #3 ) ) ;
#233 = ORIENTED_EDGE ( 'NONE', *, *, #47, .T. ) ;
#234 = CARTESIAN_POINT ( 'NONE',  ( 23.50000000000000000, -0.7500000000000002220, 0.7499999999999997780 ) ) ;
#235 = FACE_BOUND ( 'NONE', #77, .T. ) ;
#236 = EDGE_CURVE ( 'NONE', #179, #187, #9, .T. ) ;
#237 = AXIS2_PLACEMENT_3D ( 'NONE', #67, #178, #289 ) ;
#238 = ORIENTED_EDGE ( 'NONE', *, *, #73, .T. ) ;
#239 = SURFACE_SIDE_STYLE ('',( #316 ) ) ;
#240 = EDGE_LOOP ( 'NONE', ( #287, #13, #186, #211 ) ) ;
#241 = DIRECTION ( 'NONE',  ( 0.000000000000000000, 1.000000000000000000, 9.106159978880878627E-17 ) ) ;
#242 = CARTESIAN_POINT ( 'NONE',  ( -23.50000000000000000, 0.7499999999999998890, 0.7500000000000001110 ) ) ;
#243 = SURFACE_SIDE_STYLE ('',( #136 ) ) ;
#244 = MECHANICAL_DESIGN_GEOMETRIC_PRESENTATION_REPRESENTATION (  '', ( #166 ), #100 ) ;
#245 = DIRECTION ( 'NONE',  ( 0.000000000000000000, 1.000000000000000000, 9.106159978880877395E-17 ) ) ;
#246 = DIRECTION ( 'NONE',  ( 0.000000000000000000, 0.000000000000000000, -1.000000000000000000 ) ) ;
#247 = PRODUCT_DEFINITION_CONTEXT ( 'detailed design', #214, 'design' ) ;
#248 = LINE ( 'NONE', #193, #304 ) ;
#249 = VECTOR ( 'NONE', #344, 39.37007874015748143 ) ;
#250 = FACE_BOUND ( 'NONE', #254, .T. ) ;
#251 =( LENGTH_UNIT ( ) NAMED_UNIT ( * ) SI_UNIT ( $, .METRE. ) );
#252 = DIRECTION ( 'NONE',  ( 0.000000000000000000, 1.000000000000000000, 1.821231995776175479E-16 ) ) ;
#253 = EDGE_CURVE ( 'NONE', #12, #179, #162, .T. ) ;
#254 = EDGE_LOOP ( 'NONE', ( #337, #66, #202, #62 ) ) ;
#255 = AXIS2_PLACEMENT_3D ( 'NONE', #35, #305, #130 ) ;
#256 = VERTEX_POINT ( 'NONE', #272 ) ;
#257 = ORIENTED_EDGE ( 'NONE', *, *, #311, .F. ) ;
#258 = EDGE_CURVE ( 'NONE', #321, #12, #29, .T. ) ;
#259 = ORIENTED_EDGE ( 'NONE', *, *, #346, .T. ) ;
#260 = PLANE ( 'NONE',  #237 ) ;
#261 = PRESENTATION_LAYER_ASSIGNMENT (  '', '', ( #166 ) ) ;
#262 = CARTESIAN_POINT ( 'NONE',  ( 23.50000000000000000, -0.7500000000000002220, 0.7499999999999997780 ) ) ;
#263 = ORIENTED_EDGE ( 'NONE', *, *, #285, .F. ) ;
#264 = FILL_AREA_STYLE ('',( #21 ) ) ;
#265 = DIRECTION ( 'NONE',  ( 0.000000000000000000, 1.000000000000000000, 9.106159978880877395E-17 ) ) ;
#266 = DIRECTION ( 'NONE',  ( 1.000000000000000000, 0.000000000000000000, 0.000000000000000000 ) ) ;
#267 = VECTOR ( 'NONE', #25, 39.37007874015748143 ) ;
#268 = DIRECTION ( 'NONE',  ( -1.000000000000000000, -0.000000000000000000, -0.000000000000000000 ) ) ;
#269 = CARTESIAN_POINT ( 'NONE',  ( 23.50000000000000000, 0.7499999999999998890, -0.6875000000000001110 ) ) ;
#270 = DIRECTION ( 'NONE',  ( 0.000000000000000000, 0.000000000000000000, 1.000000000000000000 ) ) ;
#271 = DIRECTION ( 'NONE',  ( 1.000000000000000000, 0.000000000000000000, 0.000000000000000000 ) ) ;
#272 = CARTESIAN_POINT ( 'NONE',  ( -23.50000000000000000, -0.7500000000000002220, 0.7499999999999997780 ) ) ;
#273 =( NAMED_UNIT ( * ) SI_UNIT ( $, .STERADIAN. ) SOLID_ANGLE_UNIT ( ) );
#274 = VECTOR ( 'NONE', #329, 39.37007874015748143 ) ;
#275 = CARTESIAN_POINT ( 'NONE',  ( 23.50000000000000000, 0.7499999999999998890, 0.6875000000000001110 ) ) ;
#276 = LINE ( 'NONE', #302, #93 ) ;
#277 = DIMENSIONAL_EXPONENTS ( 1.000000000000000000, 0.000000000000000000, 0.000000000000000000, 0.000000000000000000, 0.000000000000000000, 0.000000000000000000, 0.000000000000000000 ) ;
#278 = DIRECTION ( 'NONE',  ( 0.000000000000000000, 0.000000000000000000, -1.000000000000000000 ) ) ;
#279 = PLANE ( 'NONE',  #125 ) ;
#280 = EDGE_CURVE ( 'NONE', #147, #340, #52, .T. ) ;
#281 = PLANE ( 'NONE',  #255 ) ;
#282 = EDGE_LOOP ( 'NONE', ( #210, #257, #65, #290 ) ) ;
#283 = AXIS2_PLACEMENT_3D ( 'NONE', #159, #266, #296 ) ;
#284 = AXIS2_PLACEMENT_3D ( 'NONE', #345, #101, #23 ) ;
#285 = EDGE_CURVE ( 'NONE', #340, #198, #301, .T. ) ;
#286 = ORIENTED_EDGE ( 'NONE', *, *, #285, .T. ) ;
#287 = ORIENTED_EDGE ( 'NONE', *, *, #236, .F. ) ;
#288 = ORIENTED_EDGE ( 'NONE', *, *, #117, .F. ) ;
#289 = DIRECTION ( 'NONE',  ( 0.000000000000000000, -0.000000000000000000, -1.000000000000000000 ) ) ;
#290 = ORIENTED_EDGE ( 'NONE', *, *, #98, .T. ) ;
#291 = DIRECTION ( 'NONE',  ( 0.000000000000000000, -1.000000000000000000, -9.106159978880877395E-17 ) ) ;
#292 = PLANE ( 'NONE',  #33 ) ;
#293 = ORIENTED_EDGE ( 'NONE', *, *, #64, .F. ) ;
#294 = DIRECTION ( 'NONE',  ( -1.000000000000000000, -0.000000000000000000, -0.000000000000000000 ) ) ;
#295 = ORIENTED_EDGE ( 'NONE', *, *, #199, .T. ) ;
#296 = DIRECTION ( 'NONE',  ( 0.000000000000000000, 0.000000000000000000, -1.000000000000000000 ) ) ;
#297 = DIRECTION ( 'NONE',  ( 0.000000000000000000, 1.000000000000000000, 9.106159978880878627E-17 ) ) ;
#298 = CARTESIAN_POINT ( 'NONE',  ( 23.50000000000000000, 0.7499999999999998890, 0.6875000000000001110 ) ) ;
#299 = AXIS2_PLACEMENT_3D ( 'NONE', #312, #180, #291 ) ;
#300 = ADVANCED_FACE ( 'NONE', ( #172 ), #281, .T. ) ;
#301 = LINE ( 'NONE', #144, #150 ) ;
#302 = CARTESIAN_POINT ( 'NONE',  ( 23.50000000000000000, 0.7499999999999998890, -0.7500000000000001110 ) ) ;
#303 = PLANE ( 'NONE',  #176 ) ;
#304 = VECTOR ( 'NONE', #8, 39.37007874015748143 ) ;
#305 = DIRECTION ( 'NONE',  ( 0.000000000000000000, -1.000000000000000000, 0.000000000000000000 ) ) ;
#306 = ORIENTED_EDGE ( 'NONE', *, *, #204, .T. ) ;
#307 = STYLED_ITEM ( 'NONE', ( #188 ), #74 ) ;
#308 = EDGE_LOOP ( 'NONE', ( #259, #185, #293, #306 ) ) ;
#309 = EDGE_LOOP ( 'NONE', ( #36, #44, #205, #90 ) ) ;
#310 = DIRECTION ( 'NONE',  ( -1.000000000000000000, -0.000000000000000000, -0.000000000000000000 ) ) ;
#311 = EDGE_CURVE ( 'NONE', #95, #49, #127, .T. ) ;
#312 = CARTESIAN_POINT ( 'NONE',  ( 23.50000000000000000, 0.7499999999999998890, -0.7500000000000001110 ) ) ;
#313 = CARTESIAN_POINT ( 'NONE',  ( -23.50000000000000000, -0.6875000000000002220, 0.7499999999999997780 ) ) ;
#314 = AXIS2_PLACEMENT_3D ( 'NONE', #298, #189, #252 ) ;
#315 = PRODUCT_DEFINITION_FORMATION_WITH_SPECIFIED_SOURCE ( 'ANY', '', #232, .NOT_KNOWN. ) ;
#316 = SURFACE_STYLE_FILL_AREA ( #264 ) ;
#317 = LINE ( 'NONE', #184, #231 ) ;
#318 =( NAMED_UNIT ( * ) SI_UNIT ( $, .STERADIAN. ) SOLID_ANGLE_UNIT ( ) );
#319 = PRODUCT_RELATED_PRODUCT_CATEGORY ( 'part', '', ( #232 ) ) ;
#320 = MANIFOLD_SOLID_BREP ( 'Extrude-Thin1', #133 ) ;
#321 = VERTEX_POINT ( 'NONE', #70 ) ;
#322 = FACE_OUTER_BOUND ( 'NONE', #229, .T. ) ;
#323 = AXIS2_PLACEMENT_3D ( 'NONE', #56, #81, #271 ) ;
#324 =( CONVERSION_BASED_UNIT ( 'INCH', #332 ) LENGTH_UNIT ( ) NAMED_UNIT ( #217 ) );
#325 = LINE ( 'NONE', #75, #181 ) ;
#326 = DIMENSIONAL_EXPONENTS ( 1.000000000000000000, 0.000000000000000000, 0.000000000000000000, 0.000000000000000000, 0.000000000000000000, 0.000000000000000000, 0.000000000000000000 ) ;
#327 = LINE ( 'NONE', #82, #105 ) ;
#328 = ADVANCED_FACE ( 'NONE', ( #102 ), #260, .F. ) ;
#329 = DIRECTION ( 'NONE',  ( -1.000000000000000000, -0.000000000000000000, -0.000000000000000000 ) ) ;
#330 = VECTOR ( 'NONE', #85, 39.37007874015748143 ) ;
#331 = LINE ( 'NONE', #224, #330 ) ;
#332 = LENGTH_MEASURE_WITH_UNIT ( LENGTH_MEASURE( 0.02539999999999999897 ), #251 );
#333 = EDGE_CURVE ( 'NONE', #24, #256, #41, .T. ) ;
#334 = DIRECTION ( 'NONE',  ( 0.000000000000000000, -1.000000000000000000, -1.821231995776175725E-16 ) ) ;
#335 = CARTESIAN_POINT ( 'NONE',  ( -23.50000000000000000, 0.7499999999999998890, 0.6875000000000001110 ) ) ;
#336 = VECTOR ( 'NONE', #245, 39.37007874015748143 ) ;
#337 = ORIENTED_EDGE ( 'NONE', *, *, #258, .T. ) ;
#338 = ORIENTED_EDGE ( 'NONE', *, *, #142, .T. ) ;
#339 = ADVANCED_FACE ( 'NONE', ( #122 ), #96, .F. ) ;
#340 = VERTEX_POINT ( 'NONE', #153 ) ;
#341 = ORIENTED_EDGE ( 'NONE', *, *, #199, .F. ) ;
#342 = ADVANCED_FACE ( 'NONE', ( #157 ), #292, .T. ) ;
#343 = ORIENTED_EDGE ( 'NONE', *, *, #20, .F. ) ;
#344 = DIRECTION ( 'NONE',  ( 0.000000000000000000, 0.000000000000000000, 1.000000000000000000 ) ) ;
#345 = CARTESIAN_POINT ( 'NONE',  ( 23.50000000000000000, 0.7499999999999998890, 0.7500000000000001110 ) ) ;
#346 = EDGE_CURVE ( 'NONE', #94, #37, #154, .T. ) ;
#347 = ORIENTED_EDGE ( 'NONE', *, *, #89, .F. ) ;
ENDSEC;
END-ISO-10303-21;
