ISO-10303-21;
HEADER;
FILE_DESCRIPTION (( 'STEP AP214' ),
    '1' );
FILE_NAME ('WCP-0230 Rev1.STEP',
    '2019-12-12T01:16:44',
    ( '' ),
    ( '' ),
    'SwSTEP 2.0',
    'SolidWorks 2018',
    '' );
FILE_SCHEMA (( 'AUTOMOTIVE_DESIGN' ));
ENDSEC;

DATA;
#1 = DIRECTION ( 'NONE',  ( 0.0000000000000000000, 1.040973895187954592E-14, -1.000000000000000000 ) ) ;
#2 = EDGE_LOOP ( 'NONE', ( #89, #322, #202, #207 ) ) ;
#3 = DIRECTION ( 'NONE',  ( -1.000000000000000000, -0.0000000000000000000, -0.0000000000000000000 ) ) ;
#4 = EDGE_CURVE ( 'NONE', #276, #196, #359, .T. ) ;
#5 = EDGE_CURVE ( 'NONE', #225, #206, #189, .T. ) ;
#6 = EDGE_LOOP ( 'NONE', ( #232, #301 ) ) ;
#7 = FILL_AREA_STYLE_COLOUR ( '', #209 ) ;
#8 = DIRECTION ( 'NONE',  ( 0.0000000000000000000, 0.0000000000000000000, -1.000000000000000000 ) ) ;
#9 = VERTEX_POINT ( 'NONE', #120 ) ;
#10 = ORIENTED_EDGE ( 'NONE', *, *, #373, .F. ) ;
#11 = DIRECTION ( 'NONE',  ( 0.0000000000000000000, 0.0000000000000000000, -1.000000000000000000 ) ) ;
#12 = CYLINDRICAL_SURFACE ( 'NONE', #42, 0.07949999999999958489 ) ;
#13 = EDGE_CURVE ( 'NONE', #276, #225, #375, .T. ) ;
#14 =( CONVERSION_BASED_UNIT ( 'INCH', #222 ) LENGTH_UNIT ( ) NAMED_UNIT ( #286 ) );
#15 = EDGE_CURVE ( 'NONE', #101, #252, #329, .T. ) ;
#16 = FILL_AREA_STYLE ('',( #270 ) ) ;
#17 = COLOUR_RGB ( '',0.8666666666666666963, 0.9098039215686274384, 1.000000000000000000 ) ;
#18 = DIRECTION ( 'NONE',  ( 0.0000000000000000000, -3.469912983959849296E-15, 1.000000000000000000 ) ) ;
#19 = ORIENTED_EDGE ( 'NONE', *, *, #87, .T. ) ;
#20 =( NAMED_UNIT ( * ) PLANE_ANGLE_UNIT ( ) SI_UNIT ( $, .RADIAN. ) );
#21 =( NAMED_UNIT ( * ) PLANE_ANGLE_UNIT ( ) SI_UNIT ( $, .RADIAN. ) );
#22 = LINE ( 'NONE', #314, #38 ) ;
#23 = EDGE_CURVE ( 'NONE', #81, #9, #272, .T. ) ;
#24 = LINE ( 'NONE', #109, #248 ) ;
#25 = VECTOR ( 'NONE', #210, 39.37007874015748143 ) ;
#26 = ORIENTED_EDGE ( 'NONE', *, *, #105, .F. ) ;
#27 = CIRCLE ( 'NONE', #150, 0.07949999999999966815 ) ;
#28 = ORIENTED_EDGE ( 'NONE', *, *, #76, .T. ) ;
#29 = CARTESIAN_POINT ( 'NONE',  ( 1.000000000000000000, 0.0000000000000000000, -0.2165063509461088997 ) ) ;
#30 = VECTOR ( 'NONE', #203, 39.37007874015748854 ) ;
#31 = EDGE_CURVE ( 'NONE', #56, #101, #278, .T. ) ;
#32 = CARTESIAN_POINT ( 'NONE',  ( 1.000000000000000000, -1.511855768138722975E-15, 0.2165063509461088997 ) ) ;
#33 = ORIENTED_EDGE ( 'NONE', *, *, #5, .F. ) ;
#34 = SURFACE_SIDE_STYLE ('',( #339 ) ) ;
#35 = DIRECTION ( 'NONE',  ( 1.000000000000000000, -0.0000000000000000000, -0.0000000000000000000 ) ) ;
#36 = PRODUCT_DEFINITION_CONTEXT ( 'detailed design', #49, 'design' ) ;
#37 = CARTESIAN_POINT ( 'NONE',  ( 1.000000000000000000, 0.0000000000000000000, -0.07949999999999958489 ) ) ;
#38 = VECTOR ( 'NONE', #35, 39.37007874015748143 ) ;
#39 = CARTESIAN_POINT ( 'NONE',  ( -1.000000000000000000, 0.1874999999999988065, 0.1082531754730552964 ) ) ;
#40 = ADVANCED_FACE ( 'NONE', ( #169 ), #129, .F. ) ;
#41 = STYLED_ITEM ( 'NONE', ( #79 ), #216 ) ;
#42 = AXIS2_PLACEMENT_3D ( 'NONE', #194, #138, #323 ) ;
#43 = CARTESIAN_POINT ( 'NONE',  ( -1.000000000000000000, -0.1875000000000003331, 0.1082531754730527013 ) ) ;
#44 = DIRECTION ( 'NONE',  ( 0.0000000000000000000, 0.0000000000000000000, -1.000000000000000000 ) ) ;
#45 = FACE_OUTER_BOUND ( 'NONE', #318, .T. ) ;
#46 = LINE ( 'NONE', #224, #95 ) ;
#47 = ORIENTED_EDGE ( 'NONE', *, *, #31, .F. ) ;
#48 = DIRECTION ( 'NONE',  ( 0.0000000000000000000, 0.8660254037844414832, -0.4999999999999950595 ) ) ;
#49 = APPLICATION_CONTEXT ( 'automotive_design' ) ;
#50 = VECTOR ( 'NONE', #208, 39.37007874015748143 ) ;
#51 =( LENGTH_UNIT ( ) NAMED_UNIT ( * ) SI_UNIT ( $, .METRE. ) );
#52 = VERTEX_POINT ( 'NONE', #122 ) ;
#53 = EDGE_CURVE ( 'NONE', #69, #257, #321, .T. ) ;
#54 = ORIENTED_EDGE ( 'NONE', *, *, #333, .T. ) ;
#55 = EDGE_LOOP ( 'NONE', ( #91, #33, #346, #90 ) ) ;
#56 = VERTEX_POINT ( 'NONE', #66 ) ;
#57 = AXIS2_PLACEMENT_3D ( 'NONE', #293, #264, #74 ) ;
#58 = EDGE_CURVE ( 'NONE', #312, #190, #86, .T. ) ;
#59 =( GEOMETRIC_REPRESENTATION_CONTEXT ( 3 ) GLOBAL_UNCERTAINTY_ASSIGNED_CONTEXT ( ( #185 ) ) GLOBAL_UNIT_ASSIGNED_CONTEXT ( ( #14, #319, #75 ) ) REPRESENTATION_CONTEXT ( 'NONE', 'WORKASPACE' ) );
#60 = CARTESIAN_POINT ( 'NONE',  ( 1.000000000000000000, 0.0000000000000000000, 0.0000000000000000000 ) ) ;
#61 = VECTOR ( 'NONE', #62, 39.37007874015748854 ) ;
#62 = DIRECTION ( 'NONE',  ( 0.0000000000000000000, 0.8660254037844379305, 0.5000000000000009992 ) ) ;
#63 = ORIENTED_EDGE ( 'NONE', *, *, #162, .F. ) ;
#64 = SURFACE_STYLE_USAGE ( .BOTH. , #34 ) ;
#65 = VECTOR ( 'NONE', #167, 39.37007874015748143 ) ;
#66 = CARTESIAN_POINT ( 'NONE',  ( 1.000000000000000000, 0.1874999999999988065, 0.1082531754730552964 ) ) ;
#67 = FACE_BOUND ( 'NONE', #6, .T. ) ;
#68 = ADVANCED_FACE ( 'NONE', ( #100 ), #214, .F. ) ;
#69 = VERTEX_POINT ( 'NONE', #256 ) ;
#70 = SURFACE_STYLE_USAGE ( .BOTH. , #199 ) ;
#71 = DIRECTION ( 'NONE',  ( 1.000000000000000000, -0.0000000000000000000, 0.0000000000000000000 ) ) ;
#72 = DIRECTION ( 'NONE',  ( 1.000000000000000000, -0.0000000000000000000, -0.0000000000000000000 ) ) ;
#73 = VECTOR ( 'NONE', #344, 39.37007874015748143 ) ;
#74 = DIRECTION ( 'NONE',  ( 0.0000000000000000000, -1.040973895187954592E-14, 1.000000000000000000 ) ) ;
#75 =( NAMED_UNIT ( * ) SI_UNIT ( $, .STERADIAN. ) SOLID_ANGLE_UNIT ( ) );
#76 = EDGE_CURVE ( 'NONE', #101, #276, #309, .T. ) ;
#77 = APPLICATION_PROTOCOL_DEFINITION ( 'draft international standard', 'automotive_design', 1998, #49 ) ;
#78 =( NAMED_UNIT ( * ) PLANE_ANGLE_UNIT ( ) SI_UNIT ( $, .RADIAN. ) );
#79 = PRESENTATION_STYLE_ASSIGNMENT (( #70 ) ) ;
#80 = SURFACE_STYLE_USAGE ( .BOTH. , #269 ) ;
#81 = VERTEX_POINT ( 'NONE', #29 ) ;
#82 = ORIENTED_EDGE ( 'NONE', *, *, #151, .F. ) ;
#83 = FILL_AREA_STYLE ('',( #84 ) ) ;
#84 = FILL_AREA_STYLE_COLOUR ( '', #188 ) ;
#85 = PRESENTATION_LAYER_ASSIGNMENT (  '', '', ( #41 ) ) ;
#86 = CIRCLE ( 'NONE', #279, 0.07949999999999966815 ) ;
#87 = EDGE_CURVE ( 'NONE', #257, #252, #241, .T. ) ;
#88 = ORIENTED_EDGE ( 'NONE', *, *, #253, .F. ) ;
#89 = ORIENTED_EDGE ( 'NONE', *, *, #53, .T. ) ;
#90 = ORIENTED_EDGE ( 'NONE', *, *, #4, .T. ) ;
#91 = ORIENTED_EDGE ( 'NONE', *, *, #253, .T. ) ;
#92 = UNCERTAINTY_MEASURE_WITH_UNIT (LENGTH_MEASURE( 1.000000000000000082E-05 ), #131, 'distance_accuracy_value', 'NONE');
#93 = FACE_BOUND ( 'NONE', #337, .T. ) ;
#94 = CARTESIAN_POINT ( 'NONE',  ( 1.000000000000000000, -0.1875000000000003331, 0.1082531754730527013 ) ) ;
#95 = VECTOR ( 'NONE', #260, 39.37007874015748143 ) ;
#96 = CARTESIAN_POINT ( 'NONE',  ( -1.000000000000000000, 0.1874999999999995837, -0.1082531754730540058 ) ) ;
#97 = CARTESIAN_POINT ( 'NONE',  ( 1.000000000000000000, 0.0000000000000000000, 0.0000000000000000000 ) ) ;
#98 = EDGE_CURVE ( 'NONE', #56, #257, #249, .T. ) ;
#99 = DIRECTION ( 'NONE',  ( 0.0000000000000000000, -0.8660254037844344888, -0.5000000000000069944 ) ) ;
#100 = FACE_OUTER_BOUND ( 'NONE', #2, .T. ) ;
#101 = VERTEX_POINT ( 'NONE', #288 ) ;
#102 = CARTESIAN_POINT ( 'NONE',  ( 1.000000000000000000, -0.1874999999999980571, -0.1082531754730566287 ) ) ;
#103 = VECTOR ( 'NONE', #3, 39.37007874015748143 ) ;
#104 = EDGE_CURVE ( 'NONE', #81, #160, #152, .T. ) ;
#105 = EDGE_CURVE ( 'NONE', #190, #52, #22, .T. ) ;
#106 = STYLED_ITEM ( 'NONE', ( #111 ), #331 ) ;
#107 =( LENGTH_UNIT ( ) NAMED_UNIT ( * ) SI_UNIT ( $, .METRE. ) );
#108 = EDGE_LOOP ( 'NONE', ( #19, #299, #47, #121 ) ) ;
#109 = CARTESIAN_POINT ( 'NONE',  ( 1.000000000000000000, 0.1874999999999995837, -0.1082531754730540058 ) ) ;
#110 =( CONVERSION_BASED_UNIT ( 'INCH', #153 ) LENGTH_UNIT ( ) NAMED_UNIT ( #342 ) );
#111 = PRESENTATION_STYLE_ASSIGNMENT (( #356 ) ) ;
#112 = CARTESIAN_POINT ( 'NONE',  ( 1.000000000000000000, 0.1874999999999988065, 0.1082531754730552964 ) ) ;
#113 = AXIS2_PLACEMENT_3D ( 'NONE', #112, #358, #48 ) ;
#114 = VECTOR ( 'NONE', #372, 39.37007874015748854 ) ;
#115 = DIRECTION ( 'NONE',  ( 0.0000000000000000000, -0.8660254037844344888, -0.5000000000000069944 ) ) ;
#116 = ORIENTED_EDGE ( 'NONE', *, *, #104, .F. ) ;
#117 = LINE ( 'NONE', #231, #114 ) ;
#118 = EDGE_CURVE ( 'NONE', #52, #332, #370, .T. ) ;
#119 = ORIENTED_EDGE ( 'NONE', *, *, #385, .T. ) ;
#120 = CARTESIAN_POINT ( 'NONE',  ( -1.000000000000000000, 0.0000000000000000000, -0.2165063509461088997 ) ) ;
#121 = ORIENTED_EDGE ( 'NONE', *, *, #98, .T. ) ;
#122 = CARTESIAN_POINT ( 'NONE',  ( 1.000000000000000000, 9.735942053221404083E-18, 0.07949999999999951550 ) ) ;
#123 = MECHANICAL_DESIGN_GEOMETRIC_PRESENTATION_REPRESENTATION (  '', ( #184 ), #384 ) ;
#124 = MECHANICAL_DESIGN_GEOMETRIC_PRESENTATION_REPRESENTATION (  '', ( #106 ), #274 ) ;
#125 = DIRECTION ( 'NONE',  ( 1.000000000000000000, -0.0000000000000000000, -0.0000000000000000000 ) ) ;
#126 = VECTOR ( 'NONE', #277, 39.37007874015748143 ) ;
#127 = CARTESIAN_POINT ( 'NONE',  ( -1.000000000000000000, 0.1874999999999988065, 0.1082531754730552964 ) ) ;
#128 = ORIENTED_EDGE ( 'NONE', *, *, #87, .F. ) ;
#129 = PLANE ( 'NONE',  #302 ) ;
#130 = ADVANCED_FACE ( 'NONE', ( #45 ), #161, .F. ) ;
#131 =( CONVERSION_BASED_UNIT ( 'INCH', #140 ) LENGTH_UNIT ( ) NAMED_UNIT ( #163 ) );
#132 = DIMENSIONAL_EXPONENTS ( 1.000000000000000000, 0.0000000000000000000, 0.0000000000000000000, 0.0000000000000000000, 0.0000000000000000000, 0.0000000000000000000, 0.0000000000000000000 ) ;
#133 = CARTESIAN_POINT ( 'NONE',  ( -1.000000000000000000, -1.511855768138722975E-15, 0.2165063509461088997 ) ) ;
#134 = ADVANCED_FACE ( 'NONE', ( #275 ), #180, .F. ) ;
#135 = STYLED_ITEM ( 'NONE', ( #330 ), #310 ) ;
#136 = CARTESIAN_POINT ( 'NONE',  ( -1.000000000000000000, 9.735942053221419491E-18, 0.07949999999999966815 ) ) ;
#137 = ADVANCED_FACE ( 'NONE', ( #93, #200 ), #226, .T. ) ;
#138 = DIRECTION ( 'NONE',  ( 1.000000000000000000, -0.0000000000000000000, -0.0000000000000000000 ) ) ;
#139 = FILL_AREA_STYLE ('',( #378 ) ) ;
#140 = LENGTH_MEASURE_WITH_UNIT ( LENGTH_MEASURE( 0.02539999999999999897 ), #285 );
#141 = ORIENTED_EDGE ( 'NONE', *, *, #151, .T. ) ;
#142 = EDGE_CURVE ( 'NONE', #190, #312, #27, .T. ) ;
#143 = PLANE ( 'NONE',  #113 ) ;
#144 = PRODUCT_CONTEXT ( 'NONE', #303, 'mechanical' ) ;
#145 =( NAMED_UNIT ( * ) SI_UNIT ( $, .STERADIAN. ) SOLID_ANGLE_UNIT ( ) );
#146 = ORIENTED_EDGE ( 'NONE', *, *, #105, .T. ) ;
#147 =( CONVERSION_BASED_UNIT ( 'INCH', #386 ) LENGTH_UNIT ( ) NAMED_UNIT ( #345 ) );
#148 = CARTESIAN_POINT ( 'NONE',  ( 1.000000000000000000, -0.1874999999999980571, -0.1082531754730566287 ) ) ;
#149 = UNCERTAINTY_MEASURE_WITH_UNIT (LENGTH_MEASURE( 1.000000000000000082E-05 ), #239, 'distance_accuracy_value', 'NONE');
#150 = AXIS2_PLACEMENT_3D ( 'NONE', #347, #290, #171 ) ;
#151 = EDGE_CURVE ( 'NONE', #206, #9, #117, .T. ) ;
#152 = LINE ( 'NONE', #221, #61 ) ;
#153 = LENGTH_MEASURE_WITH_UNIT ( LENGTH_MEASURE( 0.02539999999999999897 ), #51 );
#154 = ORIENTED_EDGE ( 'NONE', *, *, #104, .T. ) ;
#155 = ORIENTED_EDGE ( 'NONE', *, *, #13, .T. ) ;
#156 = PRODUCT_RELATED_PRODUCT_CATEGORY ( 'part', '', ( #343 ) ) ;
#157 = LINE ( 'NONE', #37, #65 ) ;
#158 = DIRECTION ( 'NONE',  ( -1.000000000000000000, -0.0000000000000000000, -0.0000000000000000000 ) ) ;
#159 = ADVANCED_FACE ( 'NONE', ( #182 ), #223, .F. ) ;
#160 = VERTEX_POINT ( 'NONE', #173 ) ;
#161 = PLANE ( 'NONE',  #204 ) ;
#162 = EDGE_CURVE ( 'NONE', #312, #332, #157, .T. ) ;
#163 = DIMENSIONAL_EXPONENTS ( 1.000000000000000000, 0.0000000000000000000, 0.0000000000000000000, 0.0000000000000000000, 0.0000000000000000000, 0.0000000000000000000, 0.0000000000000000000 ) ;
#164 = ORIENTED_EDGE ( 'NONE', *, *, #142, .F. ) ;
#165 = DIRECTION ( 'NONE',  ( 0.0000000000000000000, -0.8660254037844414832, 0.4999999999999949485 ) ) ;
#166 = ORIENTED_EDGE ( 'NONE', *, *, #58, .F. ) ;
#167 = DIRECTION ( 'NONE',  ( 1.000000000000000000, -0.0000000000000000000, -0.0000000000000000000 ) ) ;
#168 =( NAMED_UNIT ( * ) SI_UNIT ( $, .STERADIAN. ) SOLID_ANGLE_UNIT ( ) );
#169 = FACE_OUTER_BOUND ( 'NONE', #247, .T. ) ;
#170 = AXIS2_PLACEMENT_3D ( 'NONE', #97, #313, #251 ) ;
#171 = DIRECTION ( 'NONE',  ( 0.0000000000000000000, 0.0000000000000000000, -1.000000000000000000 ) ) ;
#172 = AXIS2_PLACEMENT_3D ( 'NONE', #381, #237, #271 ) ;
#173 = CARTESIAN_POINT ( 'NONE',  ( 1.000000000000000000, 0.1874999999999995837, -0.1082531754730540058 ) ) ;
#174 = LINE ( 'NONE', #357, #30 ) ;
#175 = DIRECTION ( 'NONE',  ( 1.000000000000000000, -0.0000000000000000000, 0.0000000000000000000 ) ) ;
#176 = DIRECTION ( 'NONE',  ( 0.0000000000000000000, 0.8660254037844414832, -0.4999999999999949485 ) ) ;
#177 = EDGE_LOOP ( 'NONE', ( #246, #352, #116, #235 ) ) ;
#178 =( LENGTH_UNIT ( ) NAMED_UNIT ( * ) SI_UNIT ( $, .METRE. ) );
#179 = PRODUCT_DEFINITION_SHAPE ( 'NONE', 'NONE',  #334 ) ;
#180 = CYLINDRICAL_SURFACE ( 'NONE', #360, 0.07949999999999958489 ) ;
#181 = ORIENTED_EDGE ( 'NONE', *, *, #31, .T. ) ;
#182 = FACE_OUTER_BOUND ( 'NONE', #177, .T. ) ;
#183 = CARTESIAN_POINT ( 'NONE',  ( 1.000000000000000000, -1.511855768138722975E-15, 0.2165063509461088997 ) ) ;
#184 = STYLED_ITEM ( 'NONE', ( #304 ), #134 ) ;
#185 = UNCERTAINTY_MEASURE_WITH_UNIT (LENGTH_MEASURE( 1.000000000000000082E-05 ), #14, 'distance_accuracy_value', 'NONE');
#186 = EDGE_CURVE ( 'NONE', #332, #52, #234, .T. ) ;
#187 = CARTESIAN_POINT ( 'NONE',  ( 1.000000000000000000, 0.1874999999999988065, 0.1082531754730552964 ) ) ;
#188 = COLOUR_RGB ( '',0.2980392156862745057, 0.2980392156862745057, 0.2980392156862745057 ) ;
#189 = LINE ( 'NONE', #213, #50 ) ;
#190 = VERTEX_POINT ( 'NONE', #136 ) ;
#191 = DIRECTION ( 'NONE',  ( 0.0000000000000000000, -0.8660254037844414832, 0.4999999999999950595 ) ) ;
#192 = DIRECTION ( 'NONE',  ( 0.0000000000000000000, 0.5000000000000071054, -0.8660254037844345998 ) ) ;
#193 = ADVANCED_FACE ( 'NONE', ( #245 ), #349, .F. ) ;
#194 = CARTESIAN_POINT ( 'NONE',  ( 1.000000000000000000, 0.0000000000000000000, 0.0000000000000000000 ) ) ;
#195 = DIRECTION ( 'NONE',  ( 0.0000000000000000000, -0.8660254037844380415, -0.5000000000000009992 ) ) ;
#196 = VERTEX_POINT ( 'NONE', #43 ) ;
#197 = CARTESIAN_POINT ( 'NONE',  ( 1.000000000000000000, 0.0000000000000000000, 0.0000000000000000000 ) ) ;
#198 = LINE ( 'NONE', #148, #244 ) ;
#199 = SURFACE_SIDE_STYLE ('',( #335 ) ) ;
#200 = FACE_OUTER_BOUND ( 'NONE', #217, .T. ) ;
#201 = DIRECTION ( 'NONE',  ( 0.0000000000000000000, 0.0000000000000000000, -1.000000000000000000 ) ) ;
#202 = ORIENTED_EDGE ( 'NONE', *, *, #385, .F. ) ;
#203 = DIRECTION ( 'NONE',  ( 0.0000000000000000000, 0.8660254037844379305, 0.5000000000000009992 ) ) ;
#204 = AXIS2_PLACEMENT_3D ( 'NONE', #102, #317, #165 ) ;
#205 = PRODUCT_DEFINITION_FORMATION_WITH_SPECIFIED_SOURCE ( 'ANY', '', #343, .NOT_KNOWN. ) ;
#206 = VERTEX_POINT ( 'NONE', #289 ) ;
#207 = ORIENTED_EDGE ( 'NONE', *, *, #259, .T. ) ;
#208 = DIRECTION ( 'NONE',  ( -1.000000000000000000, -0.0000000000000000000, -0.0000000000000000000 ) ) ;
#209 = COLOUR_RGB ( '',0.8666666666666666963, 0.9098039215686274384, 1.000000000000000000 ) ;
#210 = DIRECTION ( 'NONE',  ( -1.000000000000000000, -0.0000000000000000000, -0.0000000000000000000 ) ) ;
#211 = PRESENTATION_LAYER_ASSIGNMENT (  '', '', ( #135 ) ) ;
#212 = DIRECTION ( 'NONE',  ( 0.0000000000000000000, -0.8660254037844414832, 0.4999999999999950595 ) ) ;
#213 = CARTESIAN_POINT ( 'NONE',  ( 1.000000000000000000, -0.1874999999999980571, -0.1082531754730566287 ) ) ;
#214 = PLANE ( 'NONE',  #365 ) ;
#215 = SURFACE_STYLE_FILL_AREA ( #16 ) ;
#216 = ADVANCED_FACE ( 'NONE', ( #380 ), #12, .F. ) ;
#217 = EDGE_LOOP ( 'NONE', ( #54, #154, #119, #181, #28, #155 ) ) ;
#218 = FILL_AREA_STYLE ('',( #7 ) ) ;
#219 = SURFACE_STYLE_FILL_AREA ( #83 ) ;
#220 = ADVANCED_FACE ( 'NONE', ( #67, #306 ), #351, .F. ) ;
#221 = CARTESIAN_POINT ( 'NONE',  ( 1.000000000000000000, 0.0000000000000000000, -0.2165063509461088997 ) ) ;
#222 = LENGTH_MEASURE_WITH_UNIT ( LENGTH_MEASURE( 0.02539999999999999897 ), #107 );
#223 = PLANE ( 'NONE',  #273 ) ;
#224 = CARTESIAN_POINT ( 'NONE',  ( -1.000000000000000000, -0.1875000000000003331, 0.1082531754730527013 ) ) ;
#225 = VERTEX_POINT ( 'NONE', #376 ) ;
#226 = PLANE ( 'NONE',  #227 ) ;
#227 = AXIS2_PLACEMENT_3D ( 'NONE', #197, #71, #11 ) ;
#228 = DIRECTION ( 'NONE',  ( 0.0000000000000000000, -0.5000000000000009992, 0.8660254037844380415 ) ) ;
#229 = VECTOR ( 'NONE', #158, 39.37007874015748143 ) ;
#230 = MECHANICAL_DESIGN_GEOMETRIC_PRESENTATION_REPRESENTATION (  '', ( #135 ), #261 ) ;
#231 = CARTESIAN_POINT ( 'NONE',  ( -1.000000000000000000, -0.1874999999999980571, -0.1082531754730566287 ) ) ;
#232 = ORIENTED_EDGE ( 'NONE', *, *, #58, .T. ) ;
#233 =( LENGTH_UNIT ( ) NAMED_UNIT ( * ) SI_UNIT ( $, .METRE. ) );
#234 = CIRCLE ( 'NONE', #311, 0.07949999999999951550 ) ;
#235 = ORIENTED_EDGE ( 'NONE', *, *, #23, .T. ) ;
#236 = ORIENTED_EDGE ( 'NONE', *, *, #186, .T. ) ;
#237 = DIRECTION ( 'NONE',  ( 0.0000000000000000000, 0.0000000000000000000, 1.000000000000000000 ) ) ;
#238 = PRESENTATION_LAYER_ASSIGNMENT (  '', '', ( #184 ) ) ;
#239 =( CONVERSION_BASED_UNIT ( 'INCH', #297 ) LENGTH_UNIT ( ) NAMED_UNIT ( #132 ) );
#240 =( GEOMETRIC_REPRESENTATION_CONTEXT ( 3 ) GLOBAL_UNCERTAINTY_ASSIGNED_CONTEXT ( ( #149 ) ) GLOBAL_UNIT_ASSIGNED_CONTEXT ( ( #239, #21, #145 ) ) REPRESENTATION_CONTEXT ( 'NONE', 'WORKASPACE' ) );
#241 = LINE ( 'NONE', #127, #363 ) ;
#242 = FACE_OUTER_BOUND ( 'NONE', #108, .T. ) ;
#243 = UNCERTAINTY_MEASURE_WITH_UNIT (LENGTH_MEASURE( 1.000000000000000082E-05 ), #147, 'distance_accuracy_value', 'NONE');
#244 = VECTOR ( 'NONE', #176, 39.37007874015748854 ) ;
#245 = FACE_OUTER_BOUND ( 'NONE', #55, .T. ) ;
#246 = ORIENTED_EDGE ( 'NONE', *, *, #373, .T. ) ;
#247 = EDGE_LOOP ( 'NONE', ( #325, #280, #284, #296 ) ) ;
#248 = VECTOR ( 'NONE', #18, 39.37007874015748143 ) ;
#249 = LINE ( 'NONE', #187, #229 ) ;
#250 = LINE ( 'NONE', #295, #353 ) ;
#251 = DIRECTION ( 'NONE',  ( 0.0000000000000000000, 0.0000000000000000000, -1.000000000000000000 ) ) ;
#252 = VERTEX_POINT ( 'NONE', #133 ) ;
#253 = EDGE_CURVE ( 'NONE', #196, #206, #46, .T. ) ;
#254 = PRESENTATION_LAYER_ASSIGNMENT (  '', '', ( #106 ) ) ;
#255 = DIRECTION ( 'NONE',  ( 0.0000000000000000000, 3.469912983959849296E-15, -1.000000000000000000 ) ) ;
#256 = CARTESIAN_POINT ( 'NONE',  ( -1.000000000000000000, 0.1874999999999995837, -0.1082531754730540058 ) ) ;
#257 = VERTEX_POINT ( 'NONE', #39 ) ;
#258 = DIRECTION ( 'NONE',  ( 0.0000000000000000000, 0.0000000000000000000, -1.000000000000000000 ) ) ;
#259 = EDGE_CURVE ( 'NONE', #160, #69, #250, .T. ) ;
#260 = DIRECTION ( 'NONE',  ( 0.0000000000000000000, 1.040973895187954592E-14, -1.000000000000000000 ) ) ;
#261 =( GEOMETRIC_REPRESENTATION_CONTEXT ( 3 ) GLOBAL_UNCERTAINTY_ASSIGNED_CONTEXT ( ( #292 ) ) GLOBAL_UNIT_ASSIGNED_CONTEXT ( ( #110, #20, #328 ) ) REPRESENTATION_CONTEXT ( 'NONE', 'WORKASPACE' ) );
#262 = CARTESIAN_POINT ( 'NONE',  ( 1.000000000000000000, 0.0000000000000000000, 0.0000000000000000000 ) ) ;
#263 = ORIENTED_EDGE ( 'NONE', *, *, #162, .T. ) ;
#264 = DIRECTION ( 'NONE',  ( -0.0000000000000000000, 1.000000000000000000, 1.040973895187954592E-14 ) ) ;
#265 = CARTESIAN_POINT ( 'NONE',  ( -1.000000000000000000, 0.0000000000000000000, -0.07949999999999966815 ) ) ;
#266 = VECTOR ( 'NONE', #1, 39.37007874015748143 ) ;
#267 = CARTESIAN_POINT ( 'NONE',  ( -1.000000000000000000, -1.511855768138722975E-15, 0.2165063509461088997 ) ) ;
#268 = EDGE_LOOP ( 'NONE', ( #82, #88, #362, #128, #326, #10 ) ) ;
#269 = SURFACE_SIDE_STYLE ('',( #215 ) ) ;
#270 = FILL_AREA_STYLE_COLOUR ( '', #305 ) ;
#271 = DIRECTION ( 'NONE',  ( 1.000000000000000000, 0.0000000000000000000, 0.0000000000000000000 ) ) ;
#272 = LINE ( 'NONE', #338, #103 ) ;
#273 = AXIS2_PLACEMENT_3D ( 'NONE', #320, #228, #195 ) ;
#274 =( GEOMETRIC_REPRESENTATION_CONTEXT ( 3 ) GLOBAL_UNCERTAINTY_ASSIGNED_CONTEXT ( ( #243 ) ) GLOBAL_UNIT_ASSIGNED_CONTEXT ( ( #147, #78, #298 ) ) REPRESENTATION_CONTEXT ( 'NONE', 'WORKASPACE' ) );
#275 = FACE_OUTER_BOUND ( 'NONE', #340, .T. ) ;
#276 = VERTEX_POINT ( 'NONE', #379 ) ;
#277 = DIRECTION ( 'NONE',  ( -1.000000000000000000, -0.0000000000000000000, -0.0000000000000000000 ) ) ;
#278 = LINE ( 'NONE', #308, #383 ) ;
#279 = AXIS2_PLACEMENT_3D ( 'NONE', #369, #368, #8 ) ;
#280 = ORIENTED_EDGE ( 'NONE', *, *, #4, .F. ) ;
#281 = ADVANCED_FACE ( 'NONE', ( #242 ), #143, .F. ) ;
#282 = VECTOR ( 'NONE', #115, 39.37007874015748854 ) ;
#283 = CARTESIAN_POINT ( 'NONE',  ( 1.000000000000000000, 0.1874999999999995837, -0.1082531754730540058 ) ) ;
#284 = ORIENTED_EDGE ( 'NONE', *, *, #76, .F. ) ;
#285 =( LENGTH_UNIT ( ) NAMED_UNIT ( * ) SI_UNIT ( $, .METRE. ) );
#286 = DIMENSIONAL_EXPONENTS ( 1.000000000000000000, 0.0000000000000000000, 0.0000000000000000000, 0.0000000000000000000, 0.0000000000000000000, 0.0000000000000000000, 0.0000000000000000000 ) ;
#287 = SHAPE_DEFINITION_REPRESENTATION ( #179, #331 ) ;
#288 = CARTESIAN_POINT ( 'NONE',  ( 1.000000000000000000, -1.511855768138722975E-15, 0.2165063509461088997 ) ) ;
#289 = CARTESIAN_POINT ( 'NONE',  ( -1.000000000000000000, -0.1874999999999980571, -0.1082531754730566287 ) ) ;
#290 = DIRECTION ( 'NONE',  ( 1.000000000000000000, -0.0000000000000000000, -0.0000000000000000000 ) ) ;
#291 = ORIENTED_EDGE ( 'NONE', *, *, #118, .T. ) ;
#292 = UNCERTAINTY_MEASURE_WITH_UNIT (LENGTH_MEASURE( 1.000000000000000082E-05 ), #110, 'distance_accuracy_value', 'NONE');
#293 = CARTESIAN_POINT ( 'NONE',  ( 1.000000000000000000, -0.1875000000000003331, 0.1082531754730527013 ) ) ;
#294 = EDGE_CURVE ( 'NONE', #252, #196, #316, .T. ) ;
#295 = CARTESIAN_POINT ( 'NONE',  ( 1.000000000000000000, 0.1874999999999995837, -0.1082531754730540058 ) ) ;
#296 = ORIENTED_EDGE ( 'NONE', *, *, #15, .T. ) ;
#297 = LENGTH_MEASURE_WITH_UNIT ( LENGTH_MEASURE( 0.02539999999999999897 ), #233 );
#298 =( NAMED_UNIT ( * ) SI_UNIT ( $, .STERADIAN. ) SOLID_ANGLE_UNIT ( ) );
#299 = ORIENTED_EDGE ( 'NONE', *, *, #15, .F. ) ;
#300 = CARTESIAN_POINT ( 'NONE',  ( 1.000000000000000000, 0.0000000000000000000, -0.07949999999999951550 ) ) ;
#301 = ORIENTED_EDGE ( 'NONE', *, *, #142, .T. ) ;
#302 = AXIS2_PLACEMENT_3D ( 'NONE', #32, #192, #366 ) ;
#303 = APPLICATION_CONTEXT ( 'automotive_design' ) ;
#304 = PRESENTATION_STYLE_ASSIGNMENT (( #64 ) ) ;
#305 = COLOUR_RGB ( '',0.2980392156862745057, 0.2980392156862745057, 0.2980392156862745057 ) ;
#306 = FACE_OUTER_BOUND ( 'NONE', #268, .T. ) ;
#307 = ORIENTED_EDGE ( 'NONE', *, *, #118, .F. ) ;
#308 = CARTESIAN_POINT ( 'NONE',  ( 1.000000000000000000, 0.1874999999999988065, 0.1082531754730552964 ) ) ;
#309 = LINE ( 'NONE', #315, #361 ) ;
#310 = MANIFOLD_SOLID_BREP ( '#10-32 Tapped Hole1', #348 ) ;
#311 = AXIS2_PLACEMENT_3D ( 'NONE', #262, #72, #258 ) ;
#312 = VERTEX_POINT ( 'NONE', #265 ) ;
#313 = DIRECTION ( 'NONE',  ( 1.000000000000000000, -0.0000000000000000000, -0.0000000000000000000 ) ) ;
#314 = CARTESIAN_POINT ( 'NONE',  ( 1.000000000000000000, 9.735942053221407165E-18, 0.07949999999999958489 ) ) ;
#315 = CARTESIAN_POINT ( 'NONE',  ( 1.000000000000000000, -1.511855768138722975E-15, 0.2165063509461088997 ) ) ;
#316 = LINE ( 'NONE', #267, #282 ) ;
#317 = DIRECTION ( 'NONE',  ( -0.0000000000000000000, 0.4999999999999950040, 0.8660254037844415942 ) ) ;
#318 = EDGE_LOOP ( 'NONE', ( #141, #367, #382, #336 ) ) ;
#319 =( NAMED_UNIT ( * ) PLANE_ANGLE_UNIT ( ) SI_UNIT ( $, .RADIAN. ) );
#320 = CARTESIAN_POINT ( 'NONE',  ( 1.000000000000000000, 0.0000000000000000000, -0.2165063509461088997 ) ) ;
#321 = LINE ( 'NONE', #96, #73 ) ;
#322 = ORIENTED_EDGE ( 'NONE', *, *, #98, .F. ) ;
#323 = DIRECTION ( 'NONE',  ( 0.0000000000000000000, 0.0000000000000000000, -1.000000000000000000 ) ) ;
#324 = APPLICATION_PROTOCOL_DEFINITION ( 'draft international standard', 'automotive_design', 1998, #303 ) ;
#325 = ORIENTED_EDGE ( 'NONE', *, *, #294, .T. ) ;
#326 = ORIENTED_EDGE ( 'NONE', *, *, #53, .F. ) ;
#327 = SURFACE_SIDE_STYLE ('',( #219 ) ) ;
#328 =( NAMED_UNIT ( * ) SI_UNIT ( $, .STERADIAN. ) SOLID_ANGLE_UNIT ( ) );
#329 = LINE ( 'NONE', #183, #25 ) ;
#330 = PRESENTATION_STYLE_ASSIGNMENT (( #80 ) ) ;
#331 = ADVANCED_BREP_SHAPE_REPRESENTATION ( 'WCP-0230 Rev1', ( #310, #172 ), #240 ) ;
#332 = VERTEX_POINT ( 'NONE', #300 ) ;
#333 = EDGE_CURVE ( 'NONE', #225, #81, #198, .T. ) ;
#334 = PRODUCT_DEFINITION ( 'UNKNOWN', '', #205, #36 ) ;
#335 = SURFACE_STYLE_FILL_AREA ( #139 ) ;
#336 = ORIENTED_EDGE ( 'NONE', *, *, #5, .T. ) ;
#337 = EDGE_LOOP ( 'NONE', ( #355, #307 ) ) ;
#338 = CARTESIAN_POINT ( 'NONE',  ( 1.000000000000000000, 0.0000000000000000000, -0.2165063509461088997 ) ) ;
#339 = SURFACE_STYLE_FILL_AREA ( #218 ) ;
#340 = EDGE_LOOP ( 'NONE', ( #164, #146, #291, #63 ) ) ;
#341 =( NAMED_UNIT ( * ) PLANE_ANGLE_UNIT ( ) SI_UNIT ( $, .RADIAN. ) );
#342 = DIMENSIONAL_EXPONENTS ( 1.000000000000000000, 0.0000000000000000000, 0.0000000000000000000, 0.0000000000000000000, 0.0000000000000000000, 0.0000000000000000000, 0.0000000000000000000 ) ;
#343 = PRODUCT ( 'WCP-0230 Rev1', 'WCP-0230 Rev1', '', ( #144 ) ) ;
#344 = DIRECTION ( 'NONE',  ( 0.0000000000000000000, -3.469912983959849296E-15, 1.000000000000000000 ) ) ;
#345 = DIMENSIONAL_EXPONENTS ( 1.000000000000000000, 0.0000000000000000000, 0.0000000000000000000, 0.0000000000000000000, 0.0000000000000000000, 0.0000000000000000000, 0.0000000000000000000 ) ;
#346 = ORIENTED_EDGE ( 'NONE', *, *, #13, .F. ) ;
#347 = CARTESIAN_POINT ( 'NONE',  ( -1.000000000000000000, 0.0000000000000000000, 0.0000000000000000000 ) ) ;
#348 = CLOSED_SHELL ( 'NONE', ( #134, #137, #220, #130, #159, #68, #281, #40, #193, #216 ) ) ;
#349 = PLANE ( 'NONE',  #57 ) ;
#350 = MECHANICAL_DESIGN_GEOMETRIC_PRESENTATION_REPRESENTATION (  '', ( #41 ), #59 ) ;
#351 = PLANE ( 'NONE',  #374 ) ;
#352 = ORIENTED_EDGE ( 'NONE', *, *, #259, .F. ) ;
#353 = VECTOR ( 'NONE', #354, 39.37007874015748143 ) ;
#354 = DIRECTION ( 'NONE',  ( -1.000000000000000000, -0.0000000000000000000, -0.0000000000000000000 ) ) ;
#355 = ORIENTED_EDGE ( 'NONE', *, *, #186, .F. ) ;
#356 = SURFACE_STYLE_USAGE ( .BOTH. , #327 ) ;
#357 = CARTESIAN_POINT ( 'NONE',  ( -1.000000000000000000, 0.0000000000000000000, -0.2165063509461088997 ) ) ;
#358 = DIRECTION ( 'NONE',  ( 0.0000000000000000000, -0.4999999999999950595, -0.8660254037844414832 ) ) ;
#359 = LINE ( 'NONE', #387, #126 ) ;
#360 = AXIS2_PLACEMENT_3D ( 'NONE', #60, #125, #44 ) ;
#361 = VECTOR ( 'NONE', #99, 39.37007874015748854 ) ;
#362 = ORIENTED_EDGE ( 'NONE', *, *, #294, .F. ) ;
#363 = VECTOR ( 'NONE', #191, 39.37007874015748854 ) ;
#364 = DIRECTION ( 'NONE',  ( 0.0000000000000000000, -1.000000000000000000, -3.469912983959849296E-15 ) ) ;
#365 = AXIS2_PLACEMENT_3D ( 'NONE', #283, #364, #255 ) ;
#366 = DIRECTION ( 'NONE',  ( 0.0000000000000000000, 0.8660254037844344888, 0.5000000000000069944 ) ) ;
#367 = ORIENTED_EDGE ( 'NONE', *, *, #23, .F. ) ;
#368 = DIRECTION ( 'NONE',  ( 1.000000000000000000, -0.0000000000000000000, -0.0000000000000000000 ) ) ;
#369 = CARTESIAN_POINT ( 'NONE',  ( -1.000000000000000000, 0.0000000000000000000, 0.0000000000000000000 ) ) ;
#370 = CIRCLE ( 'NONE', #170, 0.07949999999999951550 ) ;
#371 = CARTESIAN_POINT ( 'NONE',  ( -1.000000000000000000, 0.0000000000000000000, 0.0000000000000000000 ) ) ;
#372 = DIRECTION ( 'NONE',  ( 0.0000000000000000000, 0.8660254037844414832, -0.4999999999999949485 ) ) ;
#373 = EDGE_CURVE ( 'NONE', #9, #69, #174, .T. ) ;
#374 = AXIS2_PLACEMENT_3D ( 'NONE', #371, #175, #201 ) ;
#375 = LINE ( 'NONE', #94, #266 ) ;
#376 = CARTESIAN_POINT ( 'NONE',  ( 1.000000000000000000, -0.1874999999999980571, -0.1082531754730566287 ) ) ;
#377 = EDGE_LOOP ( 'NONE', ( #26, #166, #263, #236 ) ) ;
#378 = FILL_AREA_STYLE_COLOUR ( '', #17 ) ;
#379 = CARTESIAN_POINT ( 'NONE',  ( 1.000000000000000000, -0.1875000000000003331, 0.1082531754730527013 ) ) ;
#380 = FACE_OUTER_BOUND ( 'NONE', #377, .T. ) ;
#381 = CARTESIAN_POINT ( 'NONE',  ( 0.0000000000000000000, 0.0000000000000000000, 0.0000000000000000000 ) ) ;
#382 = ORIENTED_EDGE ( 'NONE', *, *, #333, .F. ) ;
#383 = VECTOR ( 'NONE', #212, 39.37007874015748854 ) ;
#384 =( GEOMETRIC_REPRESENTATION_CONTEXT ( 3 ) GLOBAL_UNCERTAINTY_ASSIGNED_CONTEXT ( ( #92 ) ) GLOBAL_UNIT_ASSIGNED_CONTEXT ( ( #131, #341, #168 ) ) REPRESENTATION_CONTEXT ( 'NONE', 'WORKASPACE' ) );
#385 = EDGE_CURVE ( 'NONE', #160, #56, #24, .T. ) ;
#386 = LENGTH_MEASURE_WITH_UNIT ( LENGTH_MEASURE( 0.02539999999999999897 ), #178 );
#387 = CARTESIAN_POINT ( 'NONE',  ( 1.000000000000000000, -0.1875000000000003331, 0.1082531754730527013 ) ) ;
ENDSEC;
END-ISO-10303-21;
