ISO-10303-21;
HEADER;
FILE_DESCRIPTION (( 'STEP AP214' ),
    '1' );
FILE_NAME ('WCP-0226 Rev1.step',
    '2019-12-12T00:45:41',
    ( '' ),
    ( '' ),
    'SwSTEP 2.0',
    'SolidWorks 2018',
    '' );
FILE_SCHEMA (( 'AUTOMOTIVE_DESIGN' ));
ENDSEC;

DATA;
#1 = AXIS2_PLACEMENT_3D ( 'NONE', #136, #32, #155 ) ;
#2 = DIRECTION ( 'NONE',  ( 0.0000000000000000000, 0.0000000000000000000, 1.000000000000000000 ) ) ;
#3 = UNCERTAINTY_MEASURE_WITH_UNIT (LENGTH_MEASURE( 1.000000000000000082E-05 ), #59, 'distance_accuracy_value', 'NONE');
#4 = CARTESIAN_POINT ( 'NONE',  ( 0.0000000000000000000, 0.0000000000000000000, 0.0000000000000000000 ) ) ;
#5 = ORIENTED_EDGE ( 'NONE', *, *, #160, .T. ) ;
#6 =( NAMED_UNIT ( * ) SI_UNIT ( $, .STERADIAN. ) SOLID_ANGLE_UNIT ( ) );
#7 = VERTEX_POINT ( 'NONE', #167 ) ;
#8 = CIRCLE ( 'NONE', #173, 0.09800000000000000377 ) ;
#9 = CARTESIAN_POINT ( 'NONE',  ( -0.5625000000000000000, 0.0000000000000000000, 0.0000000000000000000 ) ) ;
#10 = PRODUCT_DEFINITION ( 'UNKNOWN', '', #198, #213 ) ;
#11 = ORIENTED_EDGE ( 'NONE', *, *, #53, .T. ) ;
#12 = DIRECTION ( 'NONE',  ( 0.0000000000000000000, 0.0000000000000000000, -1.000000000000000000 ) ) ;
#13 = CIRCLE ( 'NONE', #61, 0.09800000000000000377 ) ;
#14 = CARTESIAN_POINT ( 'NONE',  ( 0.5625000000000000000, 0.0000000000000000000, 0.0000000000000000000 ) ) ;
#15 = DIRECTION ( 'NONE',  ( 1.000000000000000000, 0.0000000000000000000, 0.0000000000000000000 ) ) ;
#16 = ORIENTED_EDGE ( 'NONE', *, *, #82, .F. ) ;
#17 = EDGE_CURVE ( 'NONE', #35, #78, #106, .T. ) ;
#18 = EDGE_LOOP ( 'NONE', ( #216, #116, #152, #54 ) ) ;
#19 = DIRECTION ( 'NONE',  ( 1.000000000000000000, 0.0000000000000000000, 0.0000000000000000000 ) ) ;
#20 = PRESENTATION_LAYER_ASSIGNMENT (  '', '', ( #33 ) ) ;
#21 = SURFACE_STYLE_USAGE ( .BOTH. , #178 ) ;
#22 = EDGE_LOOP ( 'NONE', ( #95, #211, #175, #159 ) ) ;
#23 = FILL_AREA_STYLE ('',( #117 ) ) ;
#24 = EDGE_LOOP ( 'NONE', ( #196, #174 ) ) ;
#25 = SURFACE_STYLE_FILL_AREA ( #77 ) ;
#26 = ORIENTED_EDGE ( 'NONE', *, *, #36, .F. ) ;
#27 = AXIS2_PLACEMENT_3D ( 'NONE', #72, #207, #50 ) ;
#28 = CARTESIAN_POINT ( 'NONE',  ( 0.5625000000000000000, 1.200153863164406105E-17, -0.09800000000000000377 ) ) ;
#29 = ORIENTED_EDGE ( 'NONE', *, *, #89, .T. ) ;
#30 = ADVANCED_BREP_SHAPE_REPRESENTATION ( 'WCP-0226 Rev1', ( #210, #138 ), #111 ) ;
#31 = DIMENSIONAL_EXPONENTS ( 1.000000000000000000, 0.0000000000000000000, 0.0000000000000000000, 0.0000000000000000000, 0.0000000000000000000, 0.0000000000000000000, 0.0000000000000000000 ) ;
#32 = DIRECTION ( 'NONE',  ( 1.000000000000000000, 0.0000000000000000000, 0.0000000000000000000 ) ) ;
#33 = STYLED_ITEM ( 'NONE', ( #71 ), #30 ) ;
#34 = CARTESIAN_POINT ( 'NONE',  ( -0.5625000000000000000, 0.0000000000000000000, 0.0000000000000000000 ) ) ;
#35 = VERTEX_POINT ( 'NONE', #204 ) ;
#36 = EDGE_CURVE ( 'NONE', #78, #35, #163, .T. ) ;
#37 = CARTESIAN_POINT ( 'NONE',  ( 0.5625000000000000000, 0.0000000000000000000, 0.0000000000000000000 ) ) ;
#38 = CYLINDRICAL_SURFACE ( 'NONE', #27, 0.1870000000000000551 ) ;
#39 = EDGE_LOOP ( 'NONE', ( #128, #29, #112, #55 ) ) ;
#40 =( CONVERSION_BASED_UNIT ( 'INCH', #51 ) LENGTH_UNIT ( ) NAMED_UNIT ( #67 ) );
#41 = DIRECTION ( 'NONE',  ( 0.0000000000000000000, 0.0000000000000000000, -1.000000000000000000 ) ) ;
#42 = AXIS2_PLACEMENT_3D ( 'NONE', #34, #158, #222 ) ;
#43 = DIRECTION ( 'NONE',  ( 0.0000000000000000000, 0.0000000000000000000, 1.000000000000000000 ) ) ;
#44 = DIRECTION ( 'NONE',  ( 1.000000000000000000, 0.0000000000000000000, 0.0000000000000000000 ) ) ;
#45 = DIRECTION ( 'NONE',  ( 0.0000000000000000000, 0.0000000000000000000, -1.000000000000000000 ) ) ;
#46 = MECHANICAL_DESIGN_GEOMETRIC_PRESENTATION_REPRESENTATION (  '', ( #33 ), #96 ) ;
#47 = DIRECTION ( 'NONE',  ( 0.0000000000000000000, 0.0000000000000000000, -1.000000000000000000 ) ) ;
#48 = DIRECTION ( 'NONE',  ( -1.000000000000000000, -0.0000000000000000000, -0.0000000000000000000 ) ) ;
#49 = ADVANCED_FACE ( 'NONE', ( #122 ), #183, .T. ) ;
#50 = DIRECTION ( 'NONE',  ( 0.0000000000000000000, 0.0000000000000000000, 1.000000000000000000 ) ) ;
#51 = LENGTH_MEASURE_WITH_UNIT ( LENGTH_MEASURE( 0.02539999999999999897 ), #164 );
#52 = CARTESIAN_POINT ( 'NONE',  ( 0.5625000000000000000, 0.0000000000000000000, 0.09800000000000000377 ) ) ;
#53 = EDGE_CURVE ( 'NONE', #66, #7, #108, .T. ) ;
#54 = ORIENTED_EDGE ( 'NONE', *, *, #160, .F. ) ;
#55 = ORIENTED_EDGE ( 'NONE', *, *, #74, .F. ) ;
#56 = APPLICATION_CONTEXT ( 'automotive_design' ) ;
#57 = EDGE_CURVE ( 'NONE', #101, #205, #58, .T. ) ;
#58 = CIRCLE ( 'NONE', #169, 0.1870000000000000551 ) ;
#59 =( CONVERSION_BASED_UNIT ( 'INCH', #144 ) LENGTH_UNIT ( ) NAMED_UNIT ( #31 ) );
#60 = CIRCLE ( 'NONE', #190, 0.1870000000000000551 ) ;
#61 = AXIS2_PLACEMENT_3D ( 'NONE', #14, #15, #47 ) ;
#62 = DIRECTION ( 'NONE',  ( 1.000000000000000000, 0.0000000000000000000, 0.0000000000000000000 ) ) ;
#63 = ADVANCED_FACE ( 'NONE', ( #192 ), #97, .F. ) ;
#64 = CARTESIAN_POINT ( 'NONE',  ( 0.5625000000000000000, 0.0000000000000000000, 0.0000000000000000000 ) ) ;
#65 = EDGE_CURVE ( 'NONE', #7, #66, #60, .T. ) ;
#66 = VERTEX_POINT ( 'NONE', #220 ) ;
#67 = DIMENSIONAL_EXPONENTS ( 1.000000000000000000, 0.0000000000000000000, 0.0000000000000000000, 0.0000000000000000000, 0.0000000000000000000, 0.0000000000000000000, 0.0000000000000000000 ) ;
#68 = CARTESIAN_POINT ( 'NONE',  ( -0.5625000000000000000, 2.290089514405551281E-17, -0.1870000000000000551 ) ) ;
#69 = PRESENTATION_STYLE_ASSIGNMENT (( #21 ) ) ;
#70 = DIRECTION ( 'NONE',  ( -1.000000000000000000, -0.0000000000000000000, -0.0000000000000000000 ) ) ;
#71 = PRESENTATION_STYLE_ASSIGNMENT (( #147 ) ) ;
#72 = CARTESIAN_POINT ( 'NONE',  ( 0.5625000000000000000, 0.0000000000000000000, 0.0000000000000000000 ) ) ;
#73 = DIRECTION ( 'NONE',  ( -1.000000000000000000, -0.0000000000000000000, -0.0000000000000000000 ) ) ;
#74 = EDGE_CURVE ( 'NONE', #7, #101, #177, .T. ) ;
#75 = FACE_BOUND ( 'NONE', #24, .T. ) ;
#76 = ORIENTED_EDGE ( 'NONE', *, *, #209, .F. ) ;
#77 = FILL_AREA_STYLE ('',( #129 ) ) ;
#78 = VERTEX_POINT ( 'NONE', #151 ) ;
#79 = DIRECTION ( 'NONE',  ( 1.000000000000000000, 0.0000000000000000000, 0.0000000000000000000 ) ) ;
#80 = APPLICATION_CONTEXT ( 'automotive_design' ) ;
#81 = EDGE_LOOP ( 'NONE', ( #16, #215, #5, #26 ) ) ;
#82 = EDGE_CURVE ( 'NONE', #191, #78, #156, .T. ) ;
#83 = DIRECTION ( 'NONE',  ( 1.000000000000000000, 0.0000000000000000000, 0.0000000000000000000 ) ) ;
#84 = DIRECTION ( 'NONE',  ( 0.0000000000000000000, 0.0000000000000000000, -1.000000000000000000 ) ) ;
#85 = ORIENTED_EDGE ( 'NONE', *, *, #150, .F. ) ;
#86 = DIRECTION ( 'NONE',  ( 1.000000000000000000, 0.0000000000000000000, 0.0000000000000000000 ) ) ;
#87 = CARTESIAN_POINT ( 'NONE',  ( -0.5625000000000000000, 0.0000000000000000000, 0.0000000000000000000 ) ) ;
#88 = STYLED_ITEM ( 'NONE', ( #69 ), #210 ) ;
#89 = EDGE_CURVE ( 'NONE', #66, #205, #223, .T. ) ;
#90 = CARTESIAN_POINT ( 'NONE',  ( -0.5625000000000000000, 0.0000000000000000000, 0.1870000000000000551 ) ) ;
#91 = ADVANCED_FACE ( 'NONE', ( #139 ), #124, .F. ) ;
#92 = PLANE ( 'NONE',  #185 ) ;
#93 = VECTOR ( 'NONE', #137, 39.37007874015748143 ) ;
#94 = AXIS2_PLACEMENT_3D ( 'NONE', #87, #201, #45 ) ;
#95 = ORIENTED_EDGE ( 'NONE', *, *, #89, .F. ) ;
#96 =( GEOMETRIC_REPRESENTATION_CONTEXT ( 3 ) GLOBAL_UNCERTAINTY_ASSIGNED_CONTEXT ( ( #3 ) ) GLOBAL_UNIT_ASSIGNED_CONTEXT ( ( #59, #179, #6 ) ) REPRESENTATION_CONTEXT ( 'NONE', 'WORKASPACE' ) );
#97 = CYLINDRICAL_SURFACE ( 'NONE', #180, 0.09800000000000000377 ) ;
#98 = APPLICATION_PROTOCOL_DEFINITION ( 'draft international standard', 'automotive_design', 1998, #80 ) ;
#99 =( CONVERSION_BASED_UNIT ( 'INCH', #200 ) LENGTH_UNIT ( ) NAMED_UNIT ( #135 ) );
#100 = EDGE_LOOP ( 'NONE', ( #171, #11 ) ) ;
#101 = VERTEX_POINT ( 'NONE', #90 ) ;
#102 = VECTOR ( 'NONE', #70, 39.37007874015748143 ) ;
#103 = EDGE_CURVE ( 'NONE', #126, #191, #13, .T. ) ;
#104 = CARTESIAN_POINT ( 'NONE',  ( 0.5625000000000000000, 0.0000000000000000000, 0.0000000000000000000 ) ) ;
#105 = DIRECTION ( 'NONE',  ( 0.0000000000000000000, 0.0000000000000000000, 1.000000000000000000 ) ) ;
#106 = CIRCLE ( 'NONE', #94, 0.09800000000000000377 ) ;
#107 = PLANE ( 'NONE',  #1 ) ;
#108 = CIRCLE ( 'NONE', #123, 0.1870000000000000551 ) ;
#109 = VECTOR ( 'NONE', #73, 39.37007874015748143 ) ;
#110 = ADVANCED_FACE ( 'NONE', ( #132 ), #38, .T. ) ;
#111 =( GEOMETRIC_REPRESENTATION_CONTEXT ( 3 ) GLOBAL_UNCERTAINTY_ASSIGNED_CONTEXT ( ( #115 ) ) GLOBAL_UNIT_ASSIGNED_CONTEXT ( ( #99, #162, #146 ) ) REPRESENTATION_CONTEXT ( 'NONE', 'WORKASPACE' ) );
#112 = ORIENTED_EDGE ( 'NONE', *, *, #150, .T. ) ;
#113 = CIRCLE ( 'NONE', #42, 0.1870000000000000551 ) ;
#114 = AXIS2_PLACEMENT_3D ( 'NONE', #170, #121, #43 ) ;
#115 = UNCERTAINTY_MEASURE_WITH_UNIT (LENGTH_MEASURE( 1.000000000000000082E-05 ), #99, 'distance_accuracy_value', 'NONE');
#116 = ORIENTED_EDGE ( 'NONE', *, *, #82, .T. ) ;
#117 = FILL_AREA_STYLE_COLOUR ( '', #221 ) ;
#118 = SURFACE_SIDE_STYLE ('',( #176 ) ) ;
#119 = COLOUR_RGB ( '',0.2980392156862745057, 0.2980392156862745057, 0.2980392156862745057 ) ;
#120 = DIRECTION ( 'NONE',  ( 0.0000000000000000000, 0.0000000000000000000, -1.000000000000000000 ) ) ;
#121 = DIRECTION ( 'NONE',  ( -1.000000000000000000, -0.0000000000000000000, -0.0000000000000000000 ) ) ;
#122 = FACE_OUTER_BOUND ( 'NONE', #39, .T. ) ;
#123 = AXIS2_PLACEMENT_3D ( 'NONE', #37, #44, #181 ) ;
#124 = CYLINDRICAL_SURFACE ( 'NONE', #202, 0.09800000000000000377 ) ;
#125 = CARTESIAN_POINT ( 'NONE',  ( 0.5625000000000000000, 1.200153863164406105E-17, -0.09800000000000000377 ) ) ;
#126 = VERTEX_POINT ( 'NONE', #188 ) ;
#127 =( NAMED_UNIT ( * ) PLANE_ANGLE_UNIT ( ) SI_UNIT ( $, .RADIAN. ) );
#128 = ORIENTED_EDGE ( 'NONE', *, *, #53, .F. ) ;
#129 = FILL_AREA_STYLE_COLOUR ( '', #119 ) ;
#130 = PRODUCT_CONTEXT ( 'NONE', #56, 'mechanical' ) ;
#131 = PRODUCT_RELATED_PRODUCT_CATEGORY ( 'part', '', ( #141 ) ) ;
#132 = FACE_OUTER_BOUND ( 'NONE', #22, .T. ) ;
#133 = DIRECTION ( 'NONE',  ( -1.000000000000000000, -0.0000000000000000000, -0.0000000000000000000 ) ) ;
#134 = ADVANCED_FACE ( 'NONE', ( #218, #149 ), #92, .T. ) ;
#135 = DIMENSIONAL_EXPONENTS ( 1.000000000000000000, 0.0000000000000000000, 0.0000000000000000000, 0.0000000000000000000, 0.0000000000000000000, 0.0000000000000000000, 0.0000000000000000000 ) ;
#136 = CARTESIAN_POINT ( 'NONE',  ( -0.5625000000000000000, 0.0000000000000000000, 0.0000000000000000000 ) ) ;
#137 = DIRECTION ( 'NONE',  ( -1.000000000000000000, -0.0000000000000000000, -0.0000000000000000000 ) ) ;
#138 = AXIS2_PLACEMENT_3D ( 'NONE', #4, #2, #19 ) ;
#139 = FACE_OUTER_BOUND ( 'NONE', #18, .T. ) ;
#140 = DIRECTION ( 'NONE',  ( 1.000000000000000000, 0.0000000000000000000, 0.0000000000000000000 ) ) ;
#141 = PRODUCT ( 'WCP-0226 Rev1', 'WCP-0226 Rev1', '', ( #130 ) ) ;
#142 = CLOSED_SHELL ( 'NONE', ( #91, #49, #134, #153, #110, #63 ) ) ;
#143 = ORIENTED_EDGE ( 'NONE', *, *, #103, .F. ) ;
#144 = LENGTH_MEASURE_WITH_UNIT ( LENGTH_MEASURE( 0.02539999999999999897 ), #165 );
#145 = PRODUCT_DEFINITION_SHAPE ( 'NONE', 'NONE',  #10 ) ;
#146 =( NAMED_UNIT ( * ) SI_UNIT ( $, .STERADIAN. ) SOLID_ANGLE_UNIT ( ) );
#147 = SURFACE_STYLE_USAGE ( .BOTH. , #118 ) ;
#148 = EDGE_LOOP ( 'NONE', ( #219, #85 ) ) ;
#149 = FACE_BOUND ( 'NONE', #206, .T. ) ;
#150 = EDGE_CURVE ( 'NONE', #205, #101, #113, .T. ) ;
#151 = CARTESIAN_POINT ( 'NONE',  ( -0.5625000000000000000, 1.200153863164406105E-17, -0.09800000000000000377 ) ) ;
#152 = ORIENTED_EDGE ( 'NONE', *, *, #17, .F. ) ;
#153 = ADVANCED_FACE ( 'NONE', ( #199, #75 ), #107, .F. ) ;
#154 =( GEOMETRIC_REPRESENTATION_CONTEXT ( 3 ) GLOBAL_UNCERTAINTY_ASSIGNED_CONTEXT ( ( #168 ) ) GLOBAL_UNIT_ASSIGNED_CONTEXT ( ( #40, #127, #195 ) ) REPRESENTATION_CONTEXT ( 'NONE', 'WORKASPACE' ) );
#155 = DIRECTION ( 'NONE',  ( 0.0000000000000000000, 0.0000000000000000000, -1.000000000000000000 ) ) ;
#156 = LINE ( 'NONE', #125, #109 ) ;
#157 = CARTESIAN_POINT ( 'NONE',  ( 0.5625000000000000000, 0.0000000000000000000, 0.0000000000000000000 ) ) ;
#158 = DIRECTION ( 'NONE',  ( 1.000000000000000000, 0.0000000000000000000, 0.0000000000000000000 ) ) ;
#159 = ORIENTED_EDGE ( 'NONE', *, *, #57, .T. ) ;
#160 = EDGE_CURVE ( 'NONE', #126, #35, #166, .T. ) ;
#161 = VECTOR ( 'NONE', #48, 39.37007874015748143 ) ;
#162 =( NAMED_UNIT ( * ) PLANE_ANGLE_UNIT ( ) SI_UNIT ( $, .RADIAN. ) );
#163 = CIRCLE ( 'NONE', #212, 0.09800000000000000377 ) ;
#164 =( LENGTH_UNIT ( ) NAMED_UNIT ( * ) SI_UNIT ( $, .METRE. ) );
#165 =( LENGTH_UNIT ( ) NAMED_UNIT ( * ) SI_UNIT ( $, .METRE. ) );
#166 = LINE ( 'NONE', #52, #102 ) ;
#167 = CARTESIAN_POINT ( 'NONE',  ( 0.5625000000000000000, 0.0000000000000000000, 0.1870000000000000551 ) ) ;
#168 = UNCERTAINTY_MEASURE_WITH_UNIT (LENGTH_MEASURE( 1.000000000000000082E-05 ), #40, 'distance_accuracy_value', 'NONE');
#169 = AXIS2_PLACEMENT_3D ( 'NONE', #203, #86, #120 ) ;
#170 = CARTESIAN_POINT ( 'NONE',  ( 0.5625000000000000000, 0.0000000000000000000, 0.0000000000000000000 ) ) ;
#171 = ORIENTED_EDGE ( 'NONE', *, *, #65, .T. ) ;
#172 = CARTESIAN_POINT ( 'NONE',  ( 0.5625000000000000000, 0.0000000000000000000, 0.1870000000000000551 ) ) ;
#173 = AXIS2_PLACEMENT_3D ( 'NONE', #197, #79, #41 ) ;
#174 = ORIENTED_EDGE ( 'NONE', *, *, #36, .T. ) ;
#175 = ORIENTED_EDGE ( 'NONE', *, *, #74, .T. ) ;
#176 = SURFACE_STYLE_FILL_AREA ( #23 ) ;
#177 = LINE ( 'NONE', #172, #161 ) ;
#178 = SURFACE_SIDE_STYLE ('',( #25 ) ) ;
#179 =( NAMED_UNIT ( * ) PLANE_ANGLE_UNIT ( ) SI_UNIT ( $, .RADIAN. ) );
#180 = AXIS2_PLACEMENT_3D ( 'NONE', #64, #133, #105 ) ;
#181 = DIRECTION ( 'NONE',  ( 0.0000000000000000000, 0.0000000000000000000, -1.000000000000000000 ) ) ;
#182 = DIRECTION ( 'NONE',  ( 0.0000000000000000000, 0.0000000000000000000, -1.000000000000000000 ) ) ;
#183 = CYLINDRICAL_SURFACE ( 'NONE', #114, 0.1870000000000000551 ) ;
#184 = DIRECTION ( 'NONE',  ( -1.000000000000000000, -0.0000000000000000000, -0.0000000000000000000 ) ) ;
#185 = AXIS2_PLACEMENT_3D ( 'NONE', #208, #140, #12 ) ;
#186 = DIRECTION ( 'NONE',  ( 0.0000000000000000000, 0.0000000000000000000, 1.000000000000000000 ) ) ;
#187 = SHAPE_DEFINITION_REPRESENTATION ( #145, #30 ) ;
#188 = CARTESIAN_POINT ( 'NONE',  ( 0.5625000000000000000, 0.0000000000000000000, 0.09800000000000000377 ) ) ;
#189 = CARTESIAN_POINT ( 'NONE',  ( 0.5625000000000000000, 2.290089514405551281E-17, -0.1870000000000000551 ) ) ;
#190 = AXIS2_PLACEMENT_3D ( 'NONE', #104, #83, #84 ) ;
#191 = VERTEX_POINT ( 'NONE', #28 ) ;
#192 = FACE_OUTER_BOUND ( 'NONE', #81, .T. ) ;
#193 = MECHANICAL_DESIGN_GEOMETRIC_PRESENTATION_REPRESENTATION (  '', ( #88 ), #154 ) ;
#194 = APPLICATION_PROTOCOL_DEFINITION ( 'draft international standard', 'automotive_design', 1998, #56 ) ;
#195 =( NAMED_UNIT ( * ) SI_UNIT ( $, .STERADIAN. ) SOLID_ANGLE_UNIT ( ) );
#196 = ORIENTED_EDGE ( 'NONE', *, *, #17, .T. ) ;
#197 = CARTESIAN_POINT ( 'NONE',  ( 0.5625000000000000000, 0.0000000000000000000, 0.0000000000000000000 ) ) ;
#198 = PRODUCT_DEFINITION_FORMATION_WITH_SPECIFIED_SOURCE ( 'ANY', '', #141, .NOT_KNOWN. ) ;
#199 = FACE_OUTER_BOUND ( 'NONE', #148, .T. ) ;
#200 = LENGTH_MEASURE_WITH_UNIT ( LENGTH_MEASURE( 0.02539999999999999897 ), #217 );
#201 = DIRECTION ( 'NONE',  ( 1.000000000000000000, 0.0000000000000000000, 0.0000000000000000000 ) ) ;
#202 = AXIS2_PLACEMENT_3D ( 'NONE', #157, #184, #186 ) ;
#203 = CARTESIAN_POINT ( 'NONE',  ( -0.5625000000000000000, 0.0000000000000000000, 0.0000000000000000000 ) ) ;
#204 = CARTESIAN_POINT ( 'NONE',  ( -0.5625000000000000000, 0.0000000000000000000, 0.09800000000000000377 ) ) ;
#205 = VERTEX_POINT ( 'NONE', #68 ) ;
#206 = EDGE_LOOP ( 'NONE', ( #143, #76 ) ) ;
#207 = DIRECTION ( 'NONE',  ( -1.000000000000000000, -0.0000000000000000000, -0.0000000000000000000 ) ) ;
#208 = CARTESIAN_POINT ( 'NONE',  ( 0.5625000000000000000, 0.0000000000000000000, 0.0000000000000000000 ) ) ;
#209 = EDGE_CURVE ( 'NONE', #191, #126, #8, .T. ) ;
#210 = MANIFOLD_SOLID_BREP ( 'Boss-Extrude1', #142 ) ;
#211 = ORIENTED_EDGE ( 'NONE', *, *, #65, .F. ) ;
#212 = AXIS2_PLACEMENT_3D ( 'NONE', #9, #62, #182 ) ;
#213 = PRODUCT_DEFINITION_CONTEXT ( 'detailed design', #80, 'design' ) ;
#214 = PRESENTATION_LAYER_ASSIGNMENT (  '', '', ( #88 ) ) ;
#215 = ORIENTED_EDGE ( 'NONE', *, *, #209, .T. ) ;
#216 = ORIENTED_EDGE ( 'NONE', *, *, #103, .T. ) ;
#217 =( LENGTH_UNIT ( ) NAMED_UNIT ( * ) SI_UNIT ( $, .METRE. ) );
#218 = FACE_OUTER_BOUND ( 'NONE', #100, .T. ) ;
#219 = ORIENTED_EDGE ( 'NONE', *, *, #57, .F. ) ;
#220 = CARTESIAN_POINT ( 'NONE',  ( 0.5625000000000000000, 2.290089514405551281E-17, -0.1870000000000000551 ) ) ;
#221 = COLOUR_RGB ( '',0.2980392156862745057, 0.2980392156862745057, 0.2980392156862745057 ) ;
#222 = DIRECTION ( 'NONE',  ( 0.0000000000000000000, 0.0000000000000000000, -1.000000000000000000 ) ) ;
#223 = LINE ( 'NONE', #189, #93 ) ;
ENDSEC;
END-ISO-10303-21;
