ISO-10303-21;
HEADER;
FILE_DESCRIPTION (( 'STEP AP214' ),
    '1' );
FILE_NAME ('WCP-0222 Rev1.step',
    '2019-12-12T00:45:37',
    ( '' ),
    ( '' ),
    'SwSTEP 2.0',
    'SolidWorks 2018',
    '' );
FILE_SCHEMA (( 'AUTOMOTIVE_DESIGN' ));
ENDSEC;

DATA;
#1 = DIRECTION ( 'NONE',  ( 1.000000000000000000, 0.0000000000000000000, 0.0000000000000000000 ) ) ;
#2 = LENGTH_MEASURE_WITH_UNIT ( LENGTH_MEASURE( 0.02539999999999999897 ), #40 );
#3 = DIRECTION ( 'NONE',  ( 1.000000000000000000, 0.0000000000000000000, 0.0000000000000000000 ) ) ;
#4 = CLOSED_SHELL ( 'NONE', ( #221, #122, #55, #140, #13, #91 ) ) ;
#5 = ORIENTED_EDGE ( 'NONE', *, *, #98, .F. ) ;
#6 = MECHANICAL_DESIGN_GEOMETRIC_PRESENTATION_REPRESENTATION (  '', ( #84 ), #60 ) ;
#7 = PRODUCT_DEFINITION ( 'UNKNOWN', '', #138, #113 ) ;
#8 = CIRCLE ( 'NONE', #46, 0.1870000000000000551 ) ;
#9 = ORIENTED_EDGE ( 'NONE', *, *, #69, .F. ) ;
#10 = DIRECTION ( 'NONE',  ( 0.0000000000000000000, 0.0000000000000000000, 1.000000000000000000 ) ) ;
#11 = PRESENTATION_LAYER_ASSIGNMENT (  '', '', ( #84 ) ) ;
#12 = DIRECTION ( 'NONE',  ( 1.000000000000000000, 0.0000000000000000000, 0.0000000000000000000 ) ) ;
#13 = ADVANCED_FACE ( 'NONE', ( #173 ), #125, .T. ) ;
#14 = DIRECTION ( 'NONE',  ( 0.0000000000000000000, 0.0000000000000000000, -1.000000000000000000 ) ) ;
#15 = CARTESIAN_POINT ( 'NONE',  ( 0.6250000000000000000, 0.0000000000000000000, 0.0000000000000000000 ) ) ;
#16 = ORIENTED_EDGE ( 'NONE', *, *, #89, .F. ) ;
#17 = CARTESIAN_POINT ( 'NONE',  ( 0.6250000000000000000, 0.0000000000000000000, 0.09800000000000000377 ) ) ;
#18 = MECHANICAL_DESIGN_GEOMETRIC_PRESENTATION_REPRESENTATION (  '', ( #131 ), #29 ) ;
#19 = VECTOR ( 'NONE', #181, 39.37007874015748143 ) ;
#20 = DIRECTION ( 'NONE',  ( 0.0000000000000000000, 0.0000000000000000000, 1.000000000000000000 ) ) ;
#21 = CARTESIAN_POINT ( 'NONE',  ( 0.6250000000000000000, 0.0000000000000000000, 0.0000000000000000000 ) ) ;
#22 = MANIFOLD_SOLID_BREP ( 'Boss-Extrude1', #4 ) ;
#23 = CARTESIAN_POINT ( 'NONE',  ( 0.6250000000000000000, 0.0000000000000000000, 0.0000000000000000000 ) ) ;
#24 = CIRCLE ( 'NONE', #124, 0.1870000000000000551 ) ;
#25 = UNCERTAINTY_MEASURE_WITH_UNIT (LENGTH_MEASURE( 1.000000000000000082E-05 ), #79, 'distance_accuracy_value', 'NONE');
#26 = PRODUCT_CONTEXT ( 'NONE', #80, 'mechanical' ) ;
#27 = AXIS2_PLACEMENT_3D ( 'NONE', #204, #1, #123 ) ;
#28 = ORIENTED_EDGE ( 'NONE', *, *, #202, .F. ) ;
#29 =( GEOMETRIC_REPRESENTATION_CONTEXT ( 3 ) GLOBAL_UNCERTAINTY_ASSIGNED_CONTEXT ( ( #216 ) ) GLOBAL_UNIT_ASSIGNED_CONTEXT ( ( #67, #169, #155 ) ) REPRESENTATION_CONTEXT ( 'NONE', 'WORKASPACE' ) );
#30 = EDGE_LOOP ( 'NONE', ( #62, #130 ) ) ;
#31 = CARTESIAN_POINT ( 'NONE',  ( 0.6250000000000000000, 2.290089514405551281E-17, -0.1870000000000000551 ) ) ;
#32 = PRESENTATION_LAYER_ASSIGNMENT (  '', '', ( #131 ) ) ;
#33 = VERTEX_POINT ( 'NONE', #152 ) ;
#34 = DIRECTION ( 'NONE',  ( 0.0000000000000000000, 0.0000000000000000000, -1.000000000000000000 ) ) ;
#35 = LENGTH_MEASURE_WITH_UNIT ( LENGTH_MEASURE( 0.02539999999999999897 ), #99 );
#36 = CARTESIAN_POINT ( 'NONE',  ( -0.6250000000000000000, 1.200153863164406105E-17, -0.09800000000000000377 ) ) ;
#37 = DIRECTION ( 'NONE',  ( 0.0000000000000000000, 0.0000000000000000000, -1.000000000000000000 ) ) ;
#38 = SURFACE_STYLE_FILL_AREA ( #133 ) ;
#39 = PLANE ( 'NONE',  #153 ) ;
#40 =( LENGTH_UNIT ( ) NAMED_UNIT ( * ) SI_UNIT ( $, .METRE. ) );
#41 = EDGE_CURVE ( 'NONE', #97, #64, #24, .T. ) ;
#42 = SURFACE_SIDE_STYLE ('',( #47 ) ) ;
#43 = EDGE_LOOP ( 'NONE', ( #5, #28 ) ) ;
#44 = APPLICATION_CONTEXT ( 'automotive_design' ) ;
#45 = EDGE_LOOP ( 'NONE', ( #82, #166 ) ) ;
#46 = AXIS2_PLACEMENT_3D ( 'NONE', #72, #3, #93 ) ;
#47 = SURFACE_STYLE_FILL_AREA ( #213 ) ;
#48 = FILL_AREA_STYLE_COLOUR ( '', #214 ) ;
#49 = CIRCLE ( 'NONE', #179, 0.1870000000000000551 ) ;
#50 = CARTESIAN_POINT ( 'NONE',  ( 0.6250000000000000000, 0.0000000000000000000, 0.0000000000000000000 ) ) ;
#51 = CYLINDRICAL_SURFACE ( 'NONE', #118, 0.09800000000000000377 ) ;
#52 = PLANE ( 'NONE',  #186 ) ;
#53 = DIMENSIONAL_EXPONENTS ( 1.000000000000000000, 0.0000000000000000000, 0.0000000000000000000, 0.0000000000000000000, 0.0000000000000000000, 0.0000000000000000000, 0.0000000000000000000 ) ;
#54 = CARTESIAN_POINT ( 'NONE',  ( 0.6250000000000000000, 1.200153863164406105E-17, -0.09800000000000000377 ) ) ;
#55 = ADVANCED_FACE ( 'NONE', ( #59, #185 ), #52, .T. ) ;
#56 = AXIS2_PLACEMENT_3D ( 'NONE', #21, #207, #115 ) ;
#57 = LENGTH_MEASURE_WITH_UNIT ( LENGTH_MEASURE( 0.02539999999999999897 ), #154 );
#58 = DIRECTION ( 'NONE',  ( 0.0000000000000000000, 0.0000000000000000000, 1.000000000000000000 ) ) ;
#59 = FACE_OUTER_BOUND ( 'NONE', #30, .T. ) ;
#60 =( GEOMETRIC_REPRESENTATION_CONTEXT ( 3 ) GLOBAL_UNCERTAINTY_ASSIGNED_CONTEXT ( ( #25 ) ) GLOBAL_UNIT_ASSIGNED_CONTEXT ( ( #79, #129, #164 ) ) REPRESENTATION_CONTEXT ( 'NONE', 'WORKASPACE' ) );
#61 = CARTESIAN_POINT ( 'NONE',  ( -0.6250000000000000000, 2.290089514405551281E-17, -0.1870000000000000551 ) ) ;
#62 = ORIENTED_EDGE ( 'NONE', *, *, #66, .T. ) ;
#63 = EDGE_LOOP ( 'NONE', ( #196, #146, #95, #170 ) ) ;
#64 = VERTEX_POINT ( 'NONE', #167 ) ;
#65 = VECTOR ( 'NONE', #145, 39.37007874015748143 ) ;
#66 = EDGE_CURVE ( 'NONE', #64, #97, #49, .T. ) ;
#67 =( CONVERSION_BASED_UNIT ( 'INCH', #57 ) LENGTH_UNIT ( ) NAMED_UNIT ( #70 ) );
#68 = DIRECTION ( 'NONE',  ( 0.0000000000000000000, 0.0000000000000000000, -1.000000000000000000 ) ) ;
#69 = EDGE_CURVE ( 'NONE', #97, #160, #165, .T. ) ;
#70 = DIMENSIONAL_EXPONENTS ( 1.000000000000000000, 0.0000000000000000000, 0.0000000000000000000, 0.0000000000000000000, 0.0000000000000000000, 0.0000000000000000000, 0.0000000000000000000 ) ;
#71 = DIMENSIONAL_EXPONENTS ( 1.000000000000000000, 0.0000000000000000000, 0.0000000000000000000, 0.0000000000000000000, 0.0000000000000000000, 0.0000000000000000000, 0.0000000000000000000 ) ;
#72 = CARTESIAN_POINT ( 'NONE',  ( -0.6250000000000000000, 0.0000000000000000000, 0.0000000000000000000 ) ) ;
#73 = ORIENTED_EDGE ( 'NONE', *, *, #132, .F. ) ;
#74 = DIRECTION ( 'NONE',  ( 1.000000000000000000, 0.0000000000000000000, 0.0000000000000000000 ) ) ;
#75 = CYLINDRICAL_SURFACE ( 'NONE', #77, 0.09800000000000000377 ) ;
#76 =( CONVERSION_BASED_UNIT ( 'INCH', #2 ) LENGTH_UNIT ( ) NAMED_UNIT ( #71 ) );
#77 = AXIS2_PLACEMENT_3D ( 'NONE', #182, #220, #58 ) ;
#78 = EDGE_CURVE ( 'NONE', #88, #171, #188, .T. ) ;
#79 =( CONVERSION_BASED_UNIT ( 'INCH', #35 ) LENGTH_UNIT ( ) NAMED_UNIT ( #53 ) );
#80 = APPLICATION_CONTEXT ( 'automotive_design' ) ;
#81 = ORIENTED_EDGE ( 'NONE', *, *, #69, .T. ) ;
#82 = ORIENTED_EDGE ( 'NONE', *, *, #87, .F. ) ;
#83 =( NAMED_UNIT ( * ) PLANE_ANGLE_UNIT ( ) SI_UNIT ( $, .RADIAN. ) );
#84 = STYLED_ITEM ( 'NONE', ( #128 ), #199 ) ;
#85 = COLOUR_RGB ( '',0.2980392156862745057, 0.2980392156862745057, 0.2980392156862745057 ) ;
#86 = PRODUCT ( 'WCP-0222 Rev1', 'WCP-0222 Rev1', '', ( #26 ) ) ;
#87 = EDGE_CURVE ( 'NONE', #141, #33, #100, .T. ) ;
#88 = VERTEX_POINT ( 'NONE', #158 ) ;
#89 = EDGE_CURVE ( 'NONE', #64, #183, #150, .T. ) ;
#90 = ORIENTED_EDGE ( 'NONE', *, *, #102, .T. ) ;
#91 = ADVANCED_FACE ( 'NONE', ( #106 ), #75, .F. ) ;
#92 = DIRECTION ( 'NONE',  ( 0.0000000000000000000, 0.0000000000000000000, 1.000000000000000000 ) ) ;
#93 = DIRECTION ( 'NONE',  ( 0.0000000000000000000, 0.0000000000000000000, -1.000000000000000000 ) ) ;
#94 = VECTOR ( 'NONE', #187, 39.37007874015748143 ) ;
#95 = ORIENTED_EDGE ( 'NONE', *, *, #132, .T. ) ;
#96 = DIRECTION ( 'NONE',  ( -1.000000000000000000, -0.0000000000000000000, -0.0000000000000000000 ) ) ;
#97 = VERTEX_POINT ( 'NONE', #223 ) ;
#98 = EDGE_CURVE ( 'NONE', #183, #160, #8, .T. ) ;
#99 =( LENGTH_UNIT ( ) NAMED_UNIT ( * ) SI_UNIT ( $, .METRE. ) );
#100 = CIRCLE ( 'NONE', #56, 0.09800000000000000377 ) ;
#101 = ORIENTED_EDGE ( 'NONE', *, *, #116, .T. ) ;
#102 = EDGE_CURVE ( 'NONE', #33, #171, #175, .T. ) ;
#103 = SHAPE_DEFINITION_REPRESENTATION ( #120, #199 ) ;
#104 = AXIS2_PLACEMENT_3D ( 'NONE', #201, #174, #144 ) ;
#105 = ORIENTED_EDGE ( 'NONE', *, *, #41, .F. ) ;
#106 = FACE_OUTER_BOUND ( 'NONE', #63, .T. ) ;
#107 = CARTESIAN_POINT ( 'NONE',  ( 0.6250000000000000000, 0.0000000000000000000, 0.0000000000000000000 ) ) ;
#108 = DIRECTION ( 'NONE',  ( 1.000000000000000000, 0.0000000000000000000, 0.0000000000000000000 ) ) ;
#109 = CIRCLE ( 'NONE', #27, 0.09800000000000000377 ) ;
#110 = CARTESIAN_POINT ( 'NONE',  ( 0.6250000000000000000, 0.0000000000000000000, 0.1870000000000000551 ) ) ;
#111 = ORIENTED_EDGE ( 'NONE', *, *, #78, .T. ) ;
#112 = CARTESIAN_POINT ( 'NONE',  ( -0.6250000000000000000, 0.0000000000000000000, 0.1870000000000000551 ) ) ;
#113 = PRODUCT_DEFINITION_CONTEXT ( 'detailed design', #44, 'design' ) ;
#114 = DIRECTION ( 'NONE',  ( 0.0000000000000000000, 0.0000000000000000000, -1.000000000000000000 ) ) ;
#115 = DIRECTION ( 'NONE',  ( 0.0000000000000000000, 0.0000000000000000000, -1.000000000000000000 ) ) ;
#116 = EDGE_CURVE ( 'NONE', #171, #88, #219, .T. ) ;
#117 = ORIENTED_EDGE ( 'NONE', *, *, #98, .T. ) ;
#118 = AXIS2_PLACEMENT_3D ( 'NONE', #206, #96, #92 ) ;
#119 = FILL_AREA_STYLE_COLOUR ( '', #85 ) ;
#120 = PRODUCT_DEFINITION_SHAPE ( 'NONE', 'NONE',  #7 ) ;
#121 = DIRECTION ( 'NONE',  ( -1.000000000000000000, -0.0000000000000000000, -0.0000000000000000000 ) ) ;
#122 = ADVANCED_FACE ( 'NONE', ( #161 ), #172, .T. ) ;
#123 = DIRECTION ( 'NONE',  ( 0.0000000000000000000, 0.0000000000000000000, -1.000000000000000000 ) ) ;
#124 = AXIS2_PLACEMENT_3D ( 'NONE', #107, #215, #14 ) ;
#125 = CYLINDRICAL_SURFACE ( 'NONE', #217, 0.1870000000000000551 ) ;
#126 = DIRECTION ( 'NONE',  ( 1.000000000000000000, 0.0000000000000000000, 0.0000000000000000000 ) ) ;
#127 = EDGE_LOOP ( 'NONE', ( #142, #90, #205, #73 ) ) ;
#128 = PRESENTATION_STYLE_ASSIGNMENT (( #195 ) ) ;
#129 =( NAMED_UNIT ( * ) PLANE_ANGLE_UNIT ( ) SI_UNIT ( $, .RADIAN. ) );
#130 = ORIENTED_EDGE ( 'NONE', *, *, #41, .T. ) ;
#131 = STYLED_ITEM ( 'NONE', ( #135 ), #22 ) ;
#132 = EDGE_CURVE ( 'NONE', #141, #88, #208, .T. ) ;
#133 = FILL_AREA_STYLE ('',( #119 ) ) ;
#134 = AXIS2_PLACEMENT_3D ( 'NONE', #210, #149, #180 ) ;
#135 = PRESENTATION_STYLE_ASSIGNMENT (( #136 ) ) ;
#136 = SURFACE_STYLE_USAGE ( .BOTH. , #137 ) ;
#137 = SURFACE_SIDE_STYLE ('',( #38 ) ) ;
#138 = PRODUCT_DEFINITION_FORMATION_WITH_SPECIFIED_SOURCE ( 'ANY', '', #86, .NOT_KNOWN. ) ;
#139 = CARTESIAN_POINT ( 'NONE',  ( 0.6250000000000000000, 0.0000000000000000000, 0.09800000000000000377 ) ) ;
#140 = ADVANCED_FACE ( 'NONE', ( #177, #192 ), #39, .F. ) ;
#141 = VERTEX_POINT ( 'NONE', #139 ) ;
#142 = ORIENTED_EDGE ( 'NONE', *, *, #87, .T. ) ;
#143 = CIRCLE ( 'NONE', #222, 0.1870000000000000551 ) ;
#144 = DIRECTION ( 'NONE',  ( 0.0000000000000000000, 0.0000000000000000000, -1.000000000000000000 ) ) ;
#145 = DIRECTION ( 'NONE',  ( -1.000000000000000000, -0.0000000000000000000, -0.0000000000000000000 ) ) ;
#146 = ORIENTED_EDGE ( 'NONE', *, *, #209, .T. ) ;
#147 = FACE_OUTER_BOUND ( 'NONE', #127, .T. ) ;
#148 = PRODUCT_RELATED_PRODUCT_CATEGORY ( 'part', '', ( #86 ) ) ;
#149 = DIRECTION ( 'NONE',  ( 0.0000000000000000000, 0.0000000000000000000, 1.000000000000000000 ) ) ;
#150 = LINE ( 'NONE', #110, #211 ) ;
#151 = ORIENTED_EDGE ( 'NONE', *, *, #66, .F. ) ;
#152 = CARTESIAN_POINT ( 'NONE',  ( 0.6250000000000000000, 1.200153863164406105E-17, -0.09800000000000000377 ) ) ;
#153 = AXIS2_PLACEMENT_3D ( 'NONE', #176, #74, #114 ) ;
#154 =( LENGTH_UNIT ( ) NAMED_UNIT ( * ) SI_UNIT ( $, .METRE. ) );
#155 =( NAMED_UNIT ( * ) SI_UNIT ( $, .STERADIAN. ) SOLID_ANGLE_UNIT ( ) );
#156 = ORIENTED_EDGE ( 'NONE', *, *, #89, .T. ) ;
#157 = EDGE_LOOP ( 'NONE', ( #111, #101 ) ) ;
#158 = CARTESIAN_POINT ( 'NONE',  ( -0.6250000000000000000, 0.0000000000000000000, 0.09800000000000000377 ) ) ;
#159 = CARTESIAN_POINT ( 'NONE',  ( -0.6250000000000000000, 0.0000000000000000000, 0.0000000000000000000 ) ) ;
#160 = VERTEX_POINT ( 'NONE', #61 ) ;
#161 = FACE_OUTER_BOUND ( 'NONE', #184, .T. ) ;
#162 = EDGE_LOOP ( 'NONE', ( #9, #151, #156, #117 ) ) ;
#163 = APPLICATION_PROTOCOL_DEFINITION ( 'draft international standard', 'automotive_design', 1998, #44 ) ;
#164 =( NAMED_UNIT ( * ) SI_UNIT ( $, .STERADIAN. ) SOLID_ANGLE_UNIT ( ) );
#165 = LINE ( 'NONE', #31, #19 ) ;
#166 = ORIENTED_EDGE ( 'NONE', *, *, #209, .F. ) ;
#167 = CARTESIAN_POINT ( 'NONE',  ( 0.6250000000000000000, 0.0000000000000000000, 0.1870000000000000551 ) ) ;
#168 = CARTESIAN_POINT ( 'NONE',  ( 0.6250000000000000000, 0.0000000000000000000, 0.0000000000000000000 ) ) ;
#169 =( NAMED_UNIT ( * ) PLANE_ANGLE_UNIT ( ) SI_UNIT ( $, .RADIAN. ) );
#170 = ORIENTED_EDGE ( 'NONE', *, *, #116, .F. ) ;
#171 = VERTEX_POINT ( 'NONE', #36 ) ;
#172 = CYLINDRICAL_SURFACE ( 'NONE', #190, 0.1870000000000000551 ) ;
#173 = FACE_OUTER_BOUND ( 'NONE', #162, .T. ) ;
#174 = DIRECTION ( 'NONE',  ( 1.000000000000000000, 0.0000000000000000000, 0.0000000000000000000 ) ) ;
#175 = LINE ( 'NONE', #54, #94 ) ;
#176 = CARTESIAN_POINT ( 'NONE',  ( -0.6250000000000000000, 0.0000000000000000000, 0.0000000000000000000 ) ) ;
#177 = FACE_OUTER_BOUND ( 'NONE', #43, .T. ) ;
#178 = UNCERTAINTY_MEASURE_WITH_UNIT (LENGTH_MEASURE( 1.000000000000000082E-05 ), #76, 'distance_accuracy_value', 'NONE');
#179 = AXIS2_PLACEMENT_3D ( 'NONE', #15, #198, #34 ) ;
#180 = DIRECTION ( 'NONE',  ( 1.000000000000000000, 0.0000000000000000000, 0.0000000000000000000 ) ) ;
#181 = DIRECTION ( 'NONE',  ( -1.000000000000000000, -0.0000000000000000000, -0.0000000000000000000 ) ) ;
#182 = CARTESIAN_POINT ( 'NONE',  ( 0.6250000000000000000, 0.0000000000000000000, 0.0000000000000000000 ) ) ;
#183 = VERTEX_POINT ( 'NONE', #112 ) ;
#184 = EDGE_LOOP ( 'NONE', ( #105, #81, #194, #16 ) ) ;
#185 = FACE_BOUND ( 'NONE', #45, .T. ) ;
#186 = AXIS2_PLACEMENT_3D ( 'NONE', #168, #12, #68 ) ;
#187 = DIRECTION ( 'NONE',  ( -1.000000000000000000, -0.0000000000000000000, -0.0000000000000000000 ) ) ;
#188 = CIRCLE ( 'NONE', #193, 0.09800000000000000377 ) ;
#189 = DIRECTION ( 'NONE',  ( -1.000000000000000000, -0.0000000000000000000, -0.0000000000000000000 ) ) ;
#190 = AXIS2_PLACEMENT_3D ( 'NONE', #23, #121, #20 ) ;
#191 = DIRECTION ( 'NONE',  ( 0.0000000000000000000, 0.0000000000000000000, -1.000000000000000000 ) ) ;
#192 = FACE_BOUND ( 'NONE', #157, .T. ) ;
#193 = AXIS2_PLACEMENT_3D ( 'NONE', #203, #108, #37 ) ;
#194 = ORIENTED_EDGE ( 'NONE', *, *, #202, .T. ) ;
#195 = SURFACE_STYLE_USAGE ( .BOTH. , #42 ) ;
#196 = ORIENTED_EDGE ( 'NONE', *, *, #102, .F. ) ;
#197 = APPLICATION_PROTOCOL_DEFINITION ( 'draft international standard', 'automotive_design', 1998, #80 ) ;
#198 = DIRECTION ( 'NONE',  ( 1.000000000000000000, 0.0000000000000000000, 0.0000000000000000000 ) ) ;
#199 = ADVANCED_BREP_SHAPE_REPRESENTATION ( 'WCP-0222 Rev1', ( #22, #134 ), #212 ) ;
#200 = DIRECTION ( 'NONE',  ( -1.000000000000000000, -0.0000000000000000000, -0.0000000000000000000 ) ) ;
#201 = CARTESIAN_POINT ( 'NONE',  ( -0.6250000000000000000, 0.0000000000000000000, 0.0000000000000000000 ) ) ;
#202 = EDGE_CURVE ( 'NONE', #160, #183, #143, .T. ) ;
#203 = CARTESIAN_POINT ( 'NONE',  ( -0.6250000000000000000, 0.0000000000000000000, 0.0000000000000000000 ) ) ;
#204 = CARTESIAN_POINT ( 'NONE',  ( 0.6250000000000000000, 0.0000000000000000000, 0.0000000000000000000 ) ) ;
#205 = ORIENTED_EDGE ( 'NONE', *, *, #78, .F. ) ;
#206 = CARTESIAN_POINT ( 'NONE',  ( 0.6250000000000000000, 0.0000000000000000000, 0.0000000000000000000 ) ) ;
#207 = DIRECTION ( 'NONE',  ( 1.000000000000000000, 0.0000000000000000000, 0.0000000000000000000 ) ) ;
#208 = LINE ( 'NONE', #17, #65 ) ;
#209 = EDGE_CURVE ( 'NONE', #33, #141, #109, .T. ) ;
#210 = CARTESIAN_POINT ( 'NONE',  ( 0.0000000000000000000, 0.0000000000000000000, 0.0000000000000000000 ) ) ;
#211 = VECTOR ( 'NONE', #189, 39.37007874015748143 ) ;
#212 =( GEOMETRIC_REPRESENTATION_CONTEXT ( 3 ) GLOBAL_UNCERTAINTY_ASSIGNED_CONTEXT ( ( #178 ) ) GLOBAL_UNIT_ASSIGNED_CONTEXT ( ( #76, #83, #218 ) ) REPRESENTATION_CONTEXT ( 'NONE', 'WORKASPACE' ) );
#213 = FILL_AREA_STYLE ('',( #48 ) ) ;
#214 = COLOUR_RGB ( '',0.2980392156862745057, 0.2980392156862745057, 0.2980392156862745057 ) ;
#215 = DIRECTION ( 'NONE',  ( 1.000000000000000000, 0.0000000000000000000, 0.0000000000000000000 ) ) ;
#216 = UNCERTAINTY_MEASURE_WITH_UNIT (LENGTH_MEASURE( 1.000000000000000082E-05 ), #67, 'distance_accuracy_value', 'NONE');
#217 = AXIS2_PLACEMENT_3D ( 'NONE', #50, #200, #10 ) ;
#218 =( NAMED_UNIT ( * ) SI_UNIT ( $, .STERADIAN. ) SOLID_ANGLE_UNIT ( ) );
#219 = CIRCLE ( 'NONE', #104, 0.09800000000000000377 ) ;
#220 = DIRECTION ( 'NONE',  ( -1.000000000000000000, -0.0000000000000000000, -0.0000000000000000000 ) ) ;
#221 = ADVANCED_FACE ( 'NONE', ( #147 ), #51, .F. ) ;
#222 = AXIS2_PLACEMENT_3D ( 'NONE', #159, #126, #191 ) ;
#223 = CARTESIAN_POINT ( 'NONE',  ( 0.6250000000000000000, 2.290089514405551281E-17, -0.1870000000000000551 ) ) ;
ENDSEC;
END-ISO-10303-21;
