ISO-10303-21;
HEADER;
FILE_DESCRIPTION (( 'STEP AP214' ),
    '1' );
FILE_NAME ('WCP-0217 Rev1.step',
    '2019-12-12T00:45:32',
    ( '' ),
    ( '' ),
    'SwSTEP 2.0',
    'SolidWorks 2018',
    '' );
FILE_SCHEMA (( 'AUTOMOTIVE_DESIGN' ));
ENDSEC;

DATA;
#1 = ORIENTED_EDGE ( 'NONE', *, *, #48, .F. ) ;
#2 = EDGE_LOOP ( 'NONE', ( #177, #81, #75, #73 ) ) ;
#3 = FACE_BOUND ( 'NONE', #55, .T. ) ;
#4 = DIRECTION ( 'NONE',  ( 1.000000000000000000, 0.0000000000000000000, 0.0000000000000000000 ) ) ;
#5 = CARTESIAN_POINT ( 'NONE',  ( -0.3750000000000000555, 0.0000000000000000000, 0.1870000000000000551 ) ) ;
#6 =( NAMED_UNIT ( * ) SI_UNIT ( $, .STERADIAN. ) SOLID_ANGLE_UNIT ( ) );
#7 = AXIS2_PLACEMENT_3D ( 'NONE', #80, #182, #167 ) ;
#8 = VECTOR ( 'NONE', #99, 39.37007874015748143 ) ;
#9 = STYLED_ITEM ( 'NONE', ( #203 ), #38 ) ;
#10 = FILL_AREA_STYLE_COLOUR ( '', #24 ) ;
#11 = DIRECTION ( 'NONE',  ( -1.000000000000000000, -0.0000000000000000000, -0.0000000000000000000 ) ) ;
#12 = CARTESIAN_POINT ( 'NONE',  ( 0.3750000000000000555, 0.0000000000000000000, 0.0000000000000000000 ) ) ;
#13 = EDGE_LOOP ( 'NONE', ( #157, #36 ) ) ;
#14 = ORIENTED_EDGE ( 'NONE', *, *, #192, .F. ) ;
#15 = DIRECTION ( 'NONE',  ( 1.000000000000000000, 0.0000000000000000000, 0.0000000000000000000 ) ) ;
#16 = CYLINDRICAL_SURFACE ( 'NONE', #208, 0.09800000000000000377 ) ;
#17 = DIMENSIONAL_EXPONENTS ( 1.000000000000000000, 0.0000000000000000000, 0.0000000000000000000, 0.0000000000000000000, 0.0000000000000000000, 0.0000000000000000000, 0.0000000000000000000 ) ;
#18 = ORIENTED_EDGE ( 'NONE', *, *, #43, .F. ) ;
#19 = ORIENTED_EDGE ( 'NONE', *, *, #124, .T. ) ;
#20 = AXIS2_PLACEMENT_3D ( 'NONE', #142, #214, #94 ) ;
#21 = AXIS2_PLACEMENT_3D ( 'NONE', #42, #165, #61 ) ;
#22 = CARTESIAN_POINT ( 'NONE',  ( 0.3750000000000000555, 2.290089514405550357E-17, -0.1870000000000000551 ) ) ;
#23 = MANIFOLD_SOLID_BREP ( 'Boss-Extrude1', #52 ) ;
#24 = COLOUR_RGB ( '',0.2980392156862745057, 0.2980392156862745057, 0.2980392156862745057 ) ;
#25 = DIRECTION ( 'NONE',  ( 0.0000000000000000000, 0.0000000000000000000, -1.000000000000000000 ) ) ;
#26 = SURFACE_STYLE_USAGE ( .BOTH. , #212 ) ;
#27 = LINE ( 'NONE', #31, #8 ) ;
#28 = ORIENTED_EDGE ( 'NONE', *, *, #108, .T. ) ;
#29 =( NAMED_UNIT ( * ) PLANE_ANGLE_UNIT ( ) SI_UNIT ( $, .RADIAN. ) );
#30 = ORIENTED_EDGE ( 'NONE', *, *, #210, .T. ) ;
#31 = CARTESIAN_POINT ( 'NONE',  ( 0.3750000000000000555, 1.200153863164405951E-17, -0.09800000000000000377 ) ) ;
#32 = PLANE ( 'NONE',  #34 ) ;
#33 = ORIENTED_EDGE ( 'NONE', *, *, #37, .T. ) ;
#34 = AXIS2_PLACEMENT_3D ( 'NONE', #12, #116, #100 ) ;
#35 = PRODUCT_DEFINITION ( 'UNKNOWN', '', #71, #88 ) ;
#36 = ORIENTED_EDGE ( 'NONE', *, *, #223, .T. ) ;
#37 = EDGE_CURVE ( 'NONE', #143, #41, #109, .T. ) ;
#38 = ADVANCED_BREP_SHAPE_REPRESENTATION ( 'WCP-0217 Rev1', ( #23, #78 ), #197 ) ;
#39 = LENGTH_MEASURE_WITH_UNIT ( LENGTH_MEASURE( 0.02539999999999999897 ), #123 );
#40 = ORIENTED_EDGE ( 'NONE', *, *, #37, .F. ) ;
#41 = VERTEX_POINT ( 'NONE', #92 ) ;
#42 = CARTESIAN_POINT ( 'NONE',  ( -0.3750000000000000555, 0.0000000000000000000, 0.0000000000000000000 ) ) ;
#43 = EDGE_CURVE ( 'NONE', #140, #202, #87, .T. ) ;
#44 = CARTESIAN_POINT ( 'NONE',  ( -0.3750000000000000555, 0.0000000000000000000, 0.0000000000000000000 ) ) ;
#45 = CARTESIAN_POINT ( 'NONE',  ( 0.3750000000000000555, 0.0000000000000000000, 0.1870000000000000551 ) ) ;
#46 =( NAMED_UNIT ( * ) PLANE_ANGLE_UNIT ( ) SI_UNIT ( $, .RADIAN. ) );
#47 = APPLICATION_PROTOCOL_DEFINITION ( 'draft international standard', 'automotive_design', 1998, #170 ) ;
#48 = EDGE_CURVE ( 'NONE', #202, #195, #110, .T. ) ;
#49 = EDGE_LOOP ( 'NONE', ( #33, #30, #14, #50 ) ) ;
#50 = ORIENTED_EDGE ( 'NONE', *, *, #166, .F. ) ;
#51 = LENGTH_MEASURE_WITH_UNIT ( LENGTH_MEASURE( 0.02539999999999999897 ), #189 );
#52 = CLOSED_SHELL ( 'NONE', ( #68, #72, #176, #159, #84, #171 ) ) ;
#53 = LINE ( 'NONE', #145, #128 ) ;
#54 = AXIS2_PLACEMENT_3D ( 'NONE', #222, #83, #217 ) ;
#55 = EDGE_LOOP ( 'NONE', ( #194, #28 ) ) ;
#56 = FILL_AREA_STYLE ('',( #125 ) ) ;
#57 = CARTESIAN_POINT ( 'NONE',  ( -0.3750000000000000555, 1.200153863164405951E-17, -0.09800000000000000377 ) ) ;
#58 = ORIENTED_EDGE ( 'NONE', *, *, #223, .F. ) ;
#59 = ORIENTED_EDGE ( 'NONE', *, *, #48, .T. ) ;
#60 = PRESENTATION_LAYER_ASSIGNMENT (  '', '', ( #178 ) ) ;
#61 = DIRECTION ( 'NONE',  ( 0.0000000000000000000, 0.0000000000000000000, -1.000000000000000000 ) ) ;
#62 = DIRECTION ( 'NONE',  ( -1.000000000000000000, -0.0000000000000000000, -0.0000000000000000000 ) ) ;
#63 = DIRECTION ( 'NONE',  ( 1.000000000000000000, 0.0000000000000000000, 0.0000000000000000000 ) ) ;
#64 = CARTESIAN_POINT ( 'NONE',  ( 0.0000000000000000000, 0.0000000000000000000, 0.0000000000000000000 ) ) ;
#65 = FILL_AREA_STYLE ('',( #10 ) ) ;
#66 = DIRECTION ( 'NONE',  ( 1.000000000000000000, 0.0000000000000000000, 0.0000000000000000000 ) ) ;
#67 = CARTESIAN_POINT ( 'NONE',  ( -0.3750000000000000555, 0.0000000000000000000, 0.0000000000000000000 ) ) ;
#68 = ADVANCED_FACE ( 'NONE', ( #156 ), #16, .F. ) ;
#69 = DIRECTION ( 'NONE',  ( 1.000000000000000000, 0.0000000000000000000, 0.0000000000000000000 ) ) ;
#70 = CIRCLE ( 'NONE', #213, 0.09800000000000000377 ) ;
#71 = PRODUCT_DEFINITION_FORMATION_WITH_SPECIFIED_SOURCE ( 'ANY', '', #153, .NOT_KNOWN. ) ;
#72 = ADVANCED_FACE ( 'NONE', ( #193 ), #160, .T. ) ;
#73 = ORIENTED_EDGE ( 'NONE', *, *, #108, .F. ) ;
#74 = CYLINDRICAL_SURFACE ( 'NONE', #161, 0.09800000000000000377 ) ;
#75 = ORIENTED_EDGE ( 'NONE', *, *, #166, .T. ) ;
#76 = PLANE ( 'NONE',  #105 ) ;
#77 = DIRECTION ( 'NONE',  ( 0.0000000000000000000, 0.0000000000000000000, 1.000000000000000000 ) ) ;
#78 = AXIS2_PLACEMENT_3D ( 'NONE', #64, #148, #66 ) ;
#79 = EDGE_LOOP ( 'NONE', ( #58, #59, #19, #136 ) ) ;
#80 = CARTESIAN_POINT ( 'NONE',  ( 0.3750000000000000555, 0.0000000000000000000, 0.0000000000000000000 ) ) ;
#81 = ORIENTED_EDGE ( 'NONE', *, *, #86, .T. ) ;
#82 = CIRCLE ( 'NONE', #54, 0.1870000000000000551 ) ;
#83 = DIRECTION ( 'NONE',  ( 1.000000000000000000, 0.0000000000000000000, 0.0000000000000000000 ) ) ;
#84 = ADVANCED_FACE ( 'NONE', ( #184 ), #97, .T. ) ;
#85 = DIRECTION ( 'NONE',  ( 0.0000000000000000000, 0.0000000000000000000, -1.000000000000000000 ) ) ;
#86 = EDGE_CURVE ( 'NONE', #41, #143, #120, .T. ) ;
#87 = CIRCLE ( 'NONE', #7, 0.1870000000000000551 ) ;
#88 = PRODUCT_DEFINITION_CONTEXT ( 'detailed design', #101, 'design' ) ;
#89 = EDGE_LOOP ( 'NONE', ( #40, #198 ) ) ;
#90 = PRESENTATION_LAYER_ASSIGNMENT (  '', '', ( #9 ) ) ;
#91 = DIRECTION ( 'NONE',  ( 0.0000000000000000000, 0.0000000000000000000, -1.000000000000000000 ) ) ;
#92 = CARTESIAN_POINT ( 'NONE',  ( 0.3750000000000000555, 1.200153863164405951E-17, -0.09800000000000000377 ) ) ;
#93 = ORIENTED_EDGE ( 'NONE', *, *, #124, .F. ) ;
#94 = DIRECTION ( 'NONE',  ( 0.0000000000000000000, 0.0000000000000000000, 1.000000000000000000 ) ) ;
#95 =( GEOMETRIC_REPRESENTATION_CONTEXT ( 3 ) GLOBAL_UNCERTAINTY_ASSIGNED_CONTEXT ( ( #163 ) ) GLOBAL_UNIT_ASSIGNED_CONTEXT ( ( #96, #112, #6 ) ) REPRESENTATION_CONTEXT ( 'NONE', 'WORKASPACE' ) );
#96 =( CONVERSION_BASED_UNIT ( 'INCH', #39 ) LENGTH_UNIT ( ) NAMED_UNIT ( #191 ) );
#97 = CYLINDRICAL_SURFACE ( 'NONE', #216, 0.1870000000000000551 ) ;
#98 = DIRECTION ( 'NONE',  ( -1.000000000000000000, -0.0000000000000000000, -0.0000000000000000000 ) ) ;
#99 = DIRECTION ( 'NONE',  ( -1.000000000000000000, -0.0000000000000000000, -0.0000000000000000000 ) ) ;
#100 = DIRECTION ( 'NONE',  ( 0.0000000000000000000, 0.0000000000000000000, -1.000000000000000000 ) ) ;
#101 = APPLICATION_CONTEXT ( 'automotive_design' ) ;
#102 = FACE_OUTER_BOUND ( 'NONE', #111, .T. ) ;
#103 = DIRECTION ( 'NONE',  ( 0.0000000000000000000, 0.0000000000000000000, 1.000000000000000000 ) ) ;
#104 = CARTESIAN_POINT ( 'NONE',  ( -0.3750000000000000555, 2.290089514405550357E-17, -0.1870000000000000551 ) ) ;
#105 = AXIS2_PLACEMENT_3D ( 'NONE', #132, #220, #219 ) ;
#106 = LENGTH_MEASURE_WITH_UNIT ( LENGTH_MEASURE( 0.02539999999999999897 ), #114 );
#107 = ORIENTED_EDGE ( 'NONE', *, *, #155, .T. ) ;
#108 = EDGE_CURVE ( 'NONE', #152, #122, #149, .T. ) ;
#109 = CIRCLE ( 'NONE', #135, 0.09800000000000000377 ) ;
#110 = LINE ( 'NONE', #22, #180 ) ;
#111 = EDGE_LOOP ( 'NONE', ( #158, #93 ) ) ;
#112 =( NAMED_UNIT ( * ) PLANE_ANGLE_UNIT ( ) SI_UNIT ( $, .RADIAN. ) );
#113 = MECHANICAL_DESIGN_GEOMETRIC_PRESENTATION_REPRESENTATION (  '', ( #9 ), #174 ) ;
#114 =( LENGTH_UNIT ( ) NAMED_UNIT ( * ) SI_UNIT ( $, .METRE. ) );
#115 = VECTOR ( 'NONE', #186, 39.37007874015748143 ) ;
#116 = DIRECTION ( 'NONE',  ( 1.000000000000000000, 0.0000000000000000000, 0.0000000000000000000 ) ) ;
#117 = SURFACE_SIDE_STYLE ('',( #209 ) ) ;
#118 = MECHANICAL_DESIGN_GEOMETRIC_PRESENTATION_REPRESENTATION (  '', ( #178 ), #95 ) ;
#119 = LINE ( 'NONE', #173, #115 ) ;
#120 = CIRCLE ( 'NONE', #211, 0.09800000000000000377 ) ;
#121 = CIRCLE ( 'NONE', #183, 0.1870000000000000551 ) ;
#122 = VERTEX_POINT ( 'NONE', #200 ) ;
#123 =( LENGTH_UNIT ( ) NAMED_UNIT ( * ) SI_UNIT ( $, .METRE. ) );
#124 = EDGE_CURVE ( 'NONE', #195, #146, #138, .T. ) ;
#125 = FILL_AREA_STYLE_COLOUR ( '', #137 ) ;
#126 = DIRECTION ( 'NONE',  ( 1.000000000000000000, 0.0000000000000000000, 0.0000000000000000000 ) ) ;
#127 = ORIENTED_EDGE ( 'NONE', *, *, #175, .T. ) ;
#128 = VECTOR ( 'NONE', #201, 39.37007874015748143 ) ;
#129 = CARTESIAN_POINT ( 'NONE',  ( 0.3750000000000000555, 0.0000000000000000000, 0.0000000000000000000 ) ) ;
#130 = CARTESIAN_POINT ( 'NONE',  ( -0.3750000000000000555, 0.0000000000000000000, 0.0000000000000000000 ) ) ;
#131 = SHAPE_DEFINITION_REPRESENTATION ( #133, #38 ) ;
#132 = CARTESIAN_POINT ( 'NONE',  ( -0.3750000000000000555, 0.0000000000000000000, 0.0000000000000000000 ) ) ;
#133 = PRODUCT_DEFINITION_SHAPE ( 'NONE', 'NONE',  #35 ) ;
#134 =( NAMED_UNIT ( * ) SI_UNIT ( $, .STERADIAN. ) SOLID_ANGLE_UNIT ( ) );
#135 = AXIS2_PLACEMENT_3D ( 'NONE', #204, #63, #199 ) ;
#136 = ORIENTED_EDGE ( 'NONE', *, *, #155, .F. ) ;
#137 = COLOUR_RGB ( '',0.2980392156862745057, 0.2980392156862745057, 0.2980392156862745057 ) ;
#138 = CIRCLE ( 'NONE', #21, 0.1870000000000000551 ) ;
#139 = PRODUCT_RELATED_PRODUCT_CATEGORY ( 'part', '', ( #153 ) ) ;
#140 = VERTEX_POINT ( 'NONE', #45 ) ;
#141 = UNCERTAINTY_MEASURE_WITH_UNIT (LENGTH_MEASURE( 1.000000000000000082E-05 ), #221, 'distance_accuracy_value', 'NONE');
#142 = CARTESIAN_POINT ( 'NONE',  ( 0.3750000000000000555, 0.0000000000000000000, 0.0000000000000000000 ) ) ;
#143 = VERTEX_POINT ( 'NONE', #181 ) ;
#144 = CARTESIAN_POINT ( 'NONE',  ( 0.3750000000000000555, 0.0000000000000000000, 0.0000000000000000000 ) ) ;
#145 = CARTESIAN_POINT ( 'NONE',  ( 0.3750000000000000555, 0.0000000000000000000, 0.1870000000000000551 ) ) ;
#146 = VERTEX_POINT ( 'NONE', #5 ) ;
#147 = DIRECTION ( 'NONE',  ( 0.0000000000000000000, 0.0000000000000000000, 1.000000000000000000 ) ) ;
#148 = DIRECTION ( 'NONE',  ( 0.0000000000000000000, 0.0000000000000000000, 1.000000000000000000 ) ) ;
#149 = CIRCLE ( 'NONE', #190, 0.09800000000000000377 ) ;
#150 = APPLICATION_PROTOCOL_DEFINITION ( 'draft international standard', 'automotive_design', 1998, #101 ) ;
#151 = DIMENSIONAL_EXPONENTS ( 1.000000000000000000, 0.0000000000000000000, 0.0000000000000000000, 0.0000000000000000000, 0.0000000000000000000, 0.0000000000000000000, 0.0000000000000000000 ) ;
#152 = VERTEX_POINT ( 'NONE', #57 ) ;
#153 = PRODUCT ( 'WCP-0217 Rev1', 'WCP-0217 Rev1', '', ( #206 ) ) ;
#154 = CARTESIAN_POINT ( 'NONE',  ( 0.3750000000000000555, 2.290089514405550357E-17, -0.1870000000000000551 ) ) ;
#155 = EDGE_CURVE ( 'NONE', #140, #146, #53, .T. ) ;
#156 = FACE_OUTER_BOUND ( 'NONE', #49, .T. ) ;
#157 = ORIENTED_EDGE ( 'NONE', *, *, #43, .T. ) ;
#158 = ORIENTED_EDGE ( 'NONE', *, *, #175, .F. ) ;
#159 = ADVANCED_FACE ( 'NONE', ( #102, #3 ), #76, .F. ) ;
#160 = CYLINDRICAL_SURFACE ( 'NONE', #20, 0.1870000000000000551 ) ;
#161 = AXIS2_PLACEMENT_3D ( 'NONE', #129, #11, #103 ) ;
#162 = PRESENTATION_STYLE_ASSIGNMENT (( #26 ) ) ;
#163 = UNCERTAINTY_MEASURE_WITH_UNIT (LENGTH_MEASURE( 1.000000000000000082E-05 ), #96, 'distance_accuracy_value', 'NONE');
#164 = CARTESIAN_POINT ( 'NONE',  ( 0.3750000000000000555, 0.0000000000000000000, 0.0000000000000000000 ) ) ;
#165 = DIRECTION ( 'NONE',  ( 1.000000000000000000, 0.0000000000000000000, 0.0000000000000000000 ) ) ;
#166 = EDGE_CURVE ( 'NONE', #143, #122, #119, .T. ) ;
#167 = DIRECTION ( 'NONE',  ( 0.0000000000000000000, 0.0000000000000000000, -1.000000000000000000 ) ) ;
#168 = FACE_OUTER_BOUND ( 'NONE', #2, .T. ) ;
#169 =( NAMED_UNIT ( * ) SI_UNIT ( $, .STERADIAN. ) SOLID_ANGLE_UNIT ( ) );
#170 = APPLICATION_CONTEXT ( 'automotive_design' ) ;
#171 = ADVANCED_FACE ( 'NONE', ( #168 ), #74, .F. ) ;
#172 = SURFACE_STYLE_FILL_AREA ( #56 ) ;
#173 = CARTESIAN_POINT ( 'NONE',  ( 0.3750000000000000555, 0.0000000000000000000, 0.09800000000000000377 ) ) ;
#174 =( GEOMETRIC_REPRESENTATION_CONTEXT ( 3 ) GLOBAL_UNCERTAINTY_ASSIGNED_CONTEXT ( ( #218 ) ) GLOBAL_UNIT_ASSIGNED_CONTEXT ( ( #187, #29, #169 ) ) REPRESENTATION_CONTEXT ( 'NONE', 'WORKASPACE' ) );
#175 = EDGE_CURVE ( 'NONE', #146, #195, #121, .T. ) ;
#176 = ADVANCED_FACE ( 'NONE', ( #188, #196 ), #32, .T. ) ;
#177 = ORIENTED_EDGE ( 'NONE', *, *, #210, .F. ) ;
#178 = STYLED_ITEM ( 'NONE', ( #162 ), #23 ) ;
#179 = EDGE_LOOP ( 'NONE', ( #1, #18, #107, #127 ) ) ;
#180 = VECTOR ( 'NONE', #98, 39.37007874015748143 ) ;
#181 = CARTESIAN_POINT ( 'NONE',  ( 0.3750000000000000555, 0.0000000000000000000, 0.09800000000000000377 ) ) ;
#182 = DIRECTION ( 'NONE',  ( 1.000000000000000000, 0.0000000000000000000, 0.0000000000000000000 ) ) ;
#183 = AXIS2_PLACEMENT_3D ( 'NONE', #67, #69, #207 ) ;
#184 = FACE_OUTER_BOUND ( 'NONE', #179, .T. ) ;
#185 = DIRECTION ( 'NONE',  ( -1.000000000000000000, -0.0000000000000000000, -0.0000000000000000000 ) ) ;
#186 = DIRECTION ( 'NONE',  ( -1.000000000000000000, -0.0000000000000000000, -0.0000000000000000000 ) ) ;
#187 =( CONVERSION_BASED_UNIT ( 'INCH', #51 ) LENGTH_UNIT ( ) NAMED_UNIT ( #17 ) );
#188 = FACE_OUTER_BOUND ( 'NONE', #13, .T. ) ;
#189 =( LENGTH_UNIT ( ) NAMED_UNIT ( * ) SI_UNIT ( $, .METRE. ) );
#190 = AXIS2_PLACEMENT_3D ( 'NONE', #44, #4, #25 ) ;
#191 = DIMENSIONAL_EXPONENTS ( 1.000000000000000000, 0.0000000000000000000, 0.0000000000000000000, 0.0000000000000000000, 0.0000000000000000000, 0.0000000000000000000, 0.0000000000000000000 ) ;
#192 = EDGE_CURVE ( 'NONE', #122, #152, #70, .T. ) ;
#193 = FACE_OUTER_BOUND ( 'NONE', #79, .T. ) ;
#194 = ORIENTED_EDGE ( 'NONE', *, *, #192, .T. ) ;
#195 = VERTEX_POINT ( 'NONE', #104 ) ;
#196 = FACE_BOUND ( 'NONE', #89, .T. ) ;
#197 =( GEOMETRIC_REPRESENTATION_CONTEXT ( 3 ) GLOBAL_UNCERTAINTY_ASSIGNED_CONTEXT ( ( #141 ) ) GLOBAL_UNIT_ASSIGNED_CONTEXT ( ( #221, #46, #134 ) ) REPRESENTATION_CONTEXT ( 'NONE', 'WORKASPACE' ) );
#198 = ORIENTED_EDGE ( 'NONE', *, *, #86, .F. ) ;
#199 = DIRECTION ( 'NONE',  ( 0.0000000000000000000, 0.0000000000000000000, -1.000000000000000000 ) ) ;
#200 = CARTESIAN_POINT ( 'NONE',  ( -0.3750000000000000555, 0.0000000000000000000, 0.09800000000000000377 ) ) ;
#201 = DIRECTION ( 'NONE',  ( -1.000000000000000000, -0.0000000000000000000, -0.0000000000000000000 ) ) ;
#202 = VERTEX_POINT ( 'NONE', #154 ) ;
#203 = PRESENTATION_STYLE_ASSIGNMENT (( #205 ) ) ;
#204 = CARTESIAN_POINT ( 'NONE',  ( 0.3750000000000000555, 0.0000000000000000000, 0.0000000000000000000 ) ) ;
#205 = SURFACE_STYLE_USAGE ( .BOTH. , #117 ) ;
#206 = PRODUCT_CONTEXT ( 'NONE', #170, 'mechanical' ) ;
#207 = DIRECTION ( 'NONE',  ( 0.0000000000000000000, 0.0000000000000000000, -1.000000000000000000 ) ) ;
#208 = AXIS2_PLACEMENT_3D ( 'NONE', #215, #185, #77 ) ;
#209 = SURFACE_STYLE_FILL_AREA ( #65 ) ;
#210 = EDGE_CURVE ( 'NONE', #41, #152, #27, .T. ) ;
#211 = AXIS2_PLACEMENT_3D ( 'NONE', #144, #126, #91 ) ;
#212 = SURFACE_SIDE_STYLE ('',( #172 ) ) ;
#213 = AXIS2_PLACEMENT_3D ( 'NONE', #130, #15, #85 ) ;
#214 = DIRECTION ( 'NONE',  ( -1.000000000000000000, -0.0000000000000000000, -0.0000000000000000000 ) ) ;
#215 = CARTESIAN_POINT ( 'NONE',  ( 0.3750000000000000555, 0.0000000000000000000, 0.0000000000000000000 ) ) ;
#216 = AXIS2_PLACEMENT_3D ( 'NONE', #164, #62, #147 ) ;
#217 = DIRECTION ( 'NONE',  ( 0.0000000000000000000, 0.0000000000000000000, -1.000000000000000000 ) ) ;
#218 = UNCERTAINTY_MEASURE_WITH_UNIT (LENGTH_MEASURE( 1.000000000000000082E-05 ), #187, 'distance_accuracy_value', 'NONE');
#219 = DIRECTION ( 'NONE',  ( 0.0000000000000000000, 0.0000000000000000000, -1.000000000000000000 ) ) ;
#220 = DIRECTION ( 'NONE',  ( 1.000000000000000000, 0.0000000000000000000, 0.0000000000000000000 ) ) ;
#221 =( CONVERSION_BASED_UNIT ( 'INCH', #106 ) LENGTH_UNIT ( ) NAMED_UNIT ( #151 ) );
#222 = CARTESIAN_POINT ( 'NONE',  ( 0.3750000000000000555, 0.0000000000000000000, 0.0000000000000000000 ) ) ;
#223 = EDGE_CURVE ( 'NONE', #202, #140, #82, .T. ) ;
ENDSEC;
END-ISO-10303-21;
