ISO-10303-21;
HEADER;
FILE_DESCRIPTION (( 'STEP AP214' ),
    '1' );
FILE_NAME ('WCP-0208 Rev1.step',
    '2019-12-12T00:45:23',
    ( '' ),
    ( '' ),
    'SwSTEP 2.0',
    'SolidWorks 2018',
    '' );
FILE_SCHEMA (( 'AUTOMOTIVE_DESIGN' ));
ENDSEC;

DATA;
#1 = EDGE_CURVE ( 'NONE', #180, #103, #138, .T. ) ;
#2 = ORIENTED_EDGE ( 'NONE', *, *, #168, .F. ) ;
#3 = CIRCLE ( 'NONE', #90, 0.09800000000000000377 ) ;
#4 = EDGE_LOOP ( 'NONE', ( #54, #93, #99, #204 ) ) ;
#5 = APPLICATION_CONTEXT ( 'automotive_design' ) ;
#6 = PRESENTATION_STYLE_ASSIGNMENT (( #107 ) ) ;
#7 = DIRECTION ( 'NONE',  ( 0.0000000000000000000, 0.0000000000000000000, 1.000000000000000000 ) ) ;
#8 = MECHANICAL_DESIGN_GEOMETRIC_PRESENTATION_REPRESENTATION (  '', ( #218 ), #31 ) ;
#9 = CARTESIAN_POINT ( 'NONE',  ( 1.250000000000000000, 1.200153863164406105E-17, -0.09800000000000000377 ) ) ;
#10 = CARTESIAN_POINT ( 'NONE',  ( -1.250000000000000000, 0.0000000000000000000, 0.09800000000000000377 ) ) ;
#11 = DIRECTION ( 'NONE',  ( -1.000000000000000000, -0.0000000000000000000, -0.0000000000000000000 ) ) ;
#12 = DIRECTION ( 'NONE',  ( 0.0000000000000000000, 0.0000000000000000000, -1.000000000000000000 ) ) ;
#13 = PRODUCT ( 'WCP-0208 Rev1', 'WCP-0208 Rev1', '', ( #170 ) ) ;
#14 = VERTEX_POINT ( 'NONE', #197 ) ;
#15 = DIRECTION ( 'NONE',  ( 0.0000000000000000000, 0.0000000000000000000, -1.000000000000000000 ) ) ;
#16 = CYLINDRICAL_SURFACE ( 'NONE', #121, 0.09800000000000000377 ) ;
#17 = AXIS2_PLACEMENT_3D ( 'NONE', #149, #166, #147 ) ;
#18 = ADVANCED_FACE ( 'NONE', ( #190 ), #131, .T. ) ;
#19 = SHAPE_DEFINITION_REPRESENTATION ( #211, #198 ) ;
#20 = ORIENTED_EDGE ( 'NONE', *, *, #73, .T. ) ;
#21 = CIRCLE ( 'NONE', #161, 0.1870000000000000551 ) ;
#22 = FILL_AREA_STYLE ('',( #23 ) ) ;
#23 = FILL_AREA_STYLE_COLOUR ( '', #217 ) ;
#24 = DIRECTION ( 'NONE',  ( 0.0000000000000000000, 0.0000000000000000000, -1.000000000000000000 ) ) ;
#25 = AXIS2_PLACEMENT_3D ( 'NONE', #193, #126, #219 ) ;
#26 = CARTESIAN_POINT ( 'NONE',  ( 1.250000000000000000, 0.0000000000000000000, 0.0000000000000000000 ) ) ;
#27 = UNCERTAINTY_MEASURE_WITH_UNIT (LENGTH_MEASURE( 1.000000000000000082E-05 ), #186, 'distance_accuracy_value', 'NONE');
#28 = DIRECTION ( 'NONE',  ( 0.0000000000000000000, 0.0000000000000000000, -1.000000000000000000 ) ) ;
#29 = MECHANICAL_DESIGN_GEOMETRIC_PRESENTATION_REPRESENTATION (  '', ( #165 ), #48 ) ;
#30 = FACE_OUTER_BOUND ( 'NONE', #115, .T. ) ;
#31 =( GEOMETRIC_REPRESENTATION_CONTEXT ( 3 ) GLOBAL_UNCERTAINTY_ASSIGNED_CONTEXT ( ( #27 ) ) GLOBAL_UNIT_ASSIGNED_CONTEXT ( ( #186, #154, #88 ) ) REPRESENTATION_CONTEXT ( 'NONE', 'WORKASPACE' ) );
#32 = ADVANCED_FACE ( 'NONE', ( #146 ), #38, .T. ) ;
#33 = EDGE_CURVE ( 'NONE', #62, #199, #3, .T. ) ;
#34 = AXIS2_PLACEMENT_3D ( 'NONE', #134, #155, #24 ) ;
#35 = UNCERTAINTY_MEASURE_WITH_UNIT (LENGTH_MEASURE( 1.000000000000000082E-05 ), #208, 'distance_accuracy_value', 'NONE');
#36 =( NAMED_UNIT ( * ) SI_UNIT ( $, .STERADIAN. ) SOLID_ANGLE_UNIT ( ) );
#37 = EDGE_CURVE ( 'NONE', #14, #180, #162, .T. ) ;
#38 = CYLINDRICAL_SURFACE ( 'NONE', #66, 0.1870000000000000551 ) ;
#39 = CARTESIAN_POINT ( 'NONE',  ( 1.250000000000000000, 0.0000000000000000000, 0.09800000000000000377 ) ) ;
#40 = VECTOR ( 'NONE', #108, 39.37007874015748143 ) ;
#41 = FACE_BOUND ( 'NONE', #153, .T. ) ;
#42 = CARTESIAN_POINT ( 'NONE',  ( 1.250000000000000000, 0.0000000000000000000, 0.09800000000000000377 ) ) ;
#43 = DIRECTION ( 'NONE',  ( -1.000000000000000000, -0.0000000000000000000, -0.0000000000000000000 ) ) ;
#44 = EDGE_CURVE ( 'NONE', #174, #103, #192, .T. ) ;
#45 = LENGTH_MEASURE_WITH_UNIT ( LENGTH_MEASURE( 0.02539999999999999897 ), #210 );
#46 = CARTESIAN_POINT ( 'NONE',  ( 1.250000000000000000, 0.0000000000000000000, 0.0000000000000000000 ) ) ;
#47 = FACE_OUTER_BOUND ( 'NONE', #181, .T. ) ;
#48 =( GEOMETRIC_REPRESENTATION_CONTEXT ( 3 ) GLOBAL_UNCERTAINTY_ASSIGNED_CONTEXT ( ( #35 ) ) GLOBAL_UNIT_ASSIGNED_CONTEXT ( ( #208, #135, #36 ) ) REPRESENTATION_CONTEXT ( 'NONE', 'WORKASPACE' ) );
#49 = EDGE_CURVE ( 'NONE', #14, #174, #21, .T. ) ;
#50 =( LENGTH_UNIT ( ) NAMED_UNIT ( * ) SI_UNIT ( $, .METRE. ) );
#51 = EDGE_LOOP ( 'NONE', ( #200, #169, #132, #57 ) ) ;
#52 = ORIENTED_EDGE ( 'NONE', *, *, #73, .F. ) ;
#53 = DIRECTION ( 'NONE',  ( -1.000000000000000000, -0.0000000000000000000, -0.0000000000000000000 ) ) ;
#54 = ORIENTED_EDGE ( 'NONE', *, *, #49, .F. ) ;
#55 = ORIENTED_EDGE ( 'NONE', *, *, #76, .T. ) ;
#56 = PLANE ( 'NONE',  #128 ) ;
#57 = ORIENTED_EDGE ( 'NONE', *, *, #86, .T. ) ;
#58 = SURFACE_STYLE_FILL_AREA ( #137 ) ;
#59 = CARTESIAN_POINT ( 'NONE',  ( 1.250000000000000000, 0.0000000000000000000, 0.0000000000000000000 ) ) ;
#60 = DIRECTION ( 'NONE',  ( 0.0000000000000000000, 0.0000000000000000000, 1.000000000000000000 ) ) ;
#61 = PRESENTATION_LAYER_ASSIGNMENT (  '', '', ( #165 ) ) ;
#62 = VERTEX_POINT ( 'NONE', #39 ) ;
#63 = ADVANCED_FACE ( 'NONE', ( #47 ), #16, .F. ) ;
#64 = EDGE_CURVE ( 'NONE', #120, #195, #201, .T. ) ;
#65 = ORIENTED_EDGE ( 'NONE', *, *, #64, .F. ) ;
#66 = AXIS2_PLACEMENT_3D ( 'NONE', #59, #216, #91 ) ;
#67 = ORIENTED_EDGE ( 'NONE', *, *, #76, .F. ) ;
#68 = VECTOR ( 'NONE', #171, 39.37007874015748143 ) ;
#69 = SURFACE_SIDE_STYLE ('',( #122 ) ) ;
#70 = CARTESIAN_POINT ( 'NONE',  ( -1.250000000000000000, 2.290089514405551281E-17, -0.1870000000000000551 ) ) ;
#71 = FACE_OUTER_BOUND ( 'NONE', #80, .T. ) ;
#72 = DIRECTION ( 'NONE',  ( 0.0000000000000000000, 0.0000000000000000000, -1.000000000000000000 ) ) ;
#73 = EDGE_CURVE ( 'NONE', #62, #195, #220, .T. ) ;
#74 = ORIENTED_EDGE ( 'NONE', *, *, #33, .T. ) ;
#75 = DIRECTION ( 'NONE',  ( 1.000000000000000000, 0.0000000000000000000, 0.0000000000000000000 ) ) ;
#76 = EDGE_CURVE ( 'NONE', #195, #120, #160, .T. ) ;
#77 = VECTOR ( 'NONE', #11, 39.37007874015748143 ) ;
#78 =( GEOMETRIC_REPRESENTATION_CONTEXT ( 3 ) GLOBAL_UNCERTAINTY_ASSIGNED_CONTEXT ( ( #114 ) ) GLOBAL_UNIT_ASSIGNED_CONTEXT ( ( #189, #85, #123 ) ) REPRESENTATION_CONTEXT ( 'NONE', 'WORKASPACE' ) );
#79 = DIRECTION ( 'NONE',  ( -1.000000000000000000, -0.0000000000000000000, -0.0000000000000000000 ) ) ;
#80 = EDGE_LOOP ( 'NONE', ( #222, #143 ) ) ;
#81 = ADVANCED_FACE ( 'NONE', ( #71, #41 ), #56, .T. ) ;
#82 = DIMENSIONAL_EXPONENTS ( 1.000000000000000000, 0.0000000000000000000, 0.0000000000000000000, 0.0000000000000000000, 0.0000000000000000000, 0.0000000000000000000, 0.0000000000000000000 ) ;
#83 = PRODUCT_DEFINITION_CONTEXT ( 'detailed design', #188, 'design' ) ;
#84 = CARTESIAN_POINT ( 'NONE',  ( -1.250000000000000000, 1.200153863164406105E-17, -0.09800000000000000377 ) ) ;
#85 =( NAMED_UNIT ( * ) PLANE_ANGLE_UNIT ( ) SI_UNIT ( $, .RADIAN. ) );
#86 = EDGE_CURVE ( 'NONE', #103, #180, #182, .T. ) ;
#87 = CARTESIAN_POINT ( 'NONE',  ( 0.0000000000000000000, 0.0000000000000000000, 0.0000000000000000000 ) ) ;
#88 =( NAMED_UNIT ( * ) SI_UNIT ( $, .STERADIAN. ) SOLID_ANGLE_UNIT ( ) );
#89 = CARTESIAN_POINT ( 'NONE',  ( -1.250000000000000000, 0.0000000000000000000, 0.1870000000000000551 ) ) ;
#90 = AXIS2_PLACEMENT_3D ( 'NONE', #124, #156, #72 ) ;
#91 = DIRECTION ( 'NONE',  ( 0.0000000000000000000, 0.0000000000000000000, 1.000000000000000000 ) ) ;
#92 = ORIENTED_EDGE ( 'NONE', *, *, #168, .T. ) ;
#93 = ORIENTED_EDGE ( 'NONE', *, *, #37, .T. ) ;
#94 = CARTESIAN_POINT ( 'NONE',  ( 1.250000000000000000, 0.0000000000000000000, 0.0000000000000000000 ) ) ;
#95 = EDGE_LOOP ( 'NONE', ( #55, #203 ) ) ;
#96 = AXIS2_PLACEMENT_3D ( 'NONE', #87, #209, #212 ) ;
#97 = EDGE_CURVE ( 'NONE', #174, #14, #214, .T. ) ;
#98 = ORIENTED_EDGE ( 'NONE', *, *, #205, .T. ) ;
#99 = ORIENTED_EDGE ( 'NONE', *, *, #1, .T. ) ;
#100 =( LENGTH_UNIT ( ) NAMED_UNIT ( * ) SI_UNIT ( $, .METRE. ) );
#101 = CARTESIAN_POINT ( 'NONE',  ( 1.250000000000000000, 1.200153863164406105E-17, -0.09800000000000000377 ) ) ;
#102 = APPLICATION_PROTOCOL_DEFINITION ( 'draft international standard', 'automotive_design', 1998, #188 ) ;
#103 = VERTEX_POINT ( 'NONE', #89 ) ;
#104 = PRODUCT_DEFINITION ( 'UNKNOWN', '', #136, #83 ) ;
#105 = LENGTH_MEASURE_WITH_UNIT ( LENGTH_MEASURE( 0.02539999999999999897 ), #100 );
#106 = SURFACE_SIDE_STYLE ('',( #58 ) ) ;
#107 = SURFACE_STYLE_USAGE ( .BOTH. , #106 ) ;
#108 = DIRECTION ( 'NONE',  ( -1.000000000000000000, -0.0000000000000000000, -0.0000000000000000000 ) ) ;
#109 = DIRECTION ( 'NONE',  ( 1.000000000000000000, 0.0000000000000000000, 0.0000000000000000000 ) ) ;
#110 = CIRCLE ( 'NONE', #34, 0.09800000000000000377 ) ;
#111 = DIRECTION ( 'NONE',  ( 1.000000000000000000, 0.0000000000000000000, 0.0000000000000000000 ) ) ;
#112 = AXIS2_PLACEMENT_3D ( 'NONE', #94, #173, #60 ) ;
#113 = LINE ( 'NONE', #9, #68 ) ;
#114 = UNCERTAINTY_MEASURE_WITH_UNIT (LENGTH_MEASURE( 1.000000000000000082E-05 ), #189, 'distance_accuracy_value', 'NONE');
#115 = EDGE_LOOP ( 'NONE', ( #118, #164 ) ) ;
#116 = PRESENTATION_STYLE_ASSIGNMENT (( #119 ) ) ;
#117 = ADVANCED_FACE ( 'NONE', ( #30, #184 ), #179, .F. ) ;
#118 = ORIENTED_EDGE ( 'NONE', *, *, #86, .F. ) ;
#119 = SURFACE_STYLE_USAGE ( .BOTH. , #69 ) ;
#120 = VERTEX_POINT ( 'NONE', #84 ) ;
#121 = AXIS2_PLACEMENT_3D ( 'NONE', #144, #53, #177 ) ;
#122 = SURFACE_STYLE_FILL_AREA ( #22 ) ;
#123 =( NAMED_UNIT ( * ) SI_UNIT ( $, .STERADIAN. ) SOLID_ANGLE_UNIT ( ) );
#124 = CARTESIAN_POINT ( 'NONE',  ( 1.250000000000000000, 0.0000000000000000000, 0.0000000000000000000 ) ) ;
#125 = CYLINDRICAL_SURFACE ( 'NONE', #183, 0.09800000000000000377 ) ;
#126 = DIRECTION ( 'NONE',  ( 1.000000000000000000, 0.0000000000000000000, 0.0000000000000000000 ) ) ;
#127 = CARTESIAN_POINT ( 'NONE',  ( 1.250000000000000000, 2.290089514405551281E-17, -0.1870000000000000551 ) ) ;
#128 = AXIS2_PLACEMENT_3D ( 'NONE', #46, #75, #142 ) ;
#129 = ADVANCED_FACE ( 'NONE', ( #176 ), #125, .F. ) ;
#130 = DIMENSIONAL_EXPONENTS ( 1.000000000000000000, 0.0000000000000000000, 0.0000000000000000000, 0.0000000000000000000, 0.0000000000000000000, 0.0000000000000000000, 0.0000000000000000000 ) ;
#131 = CYLINDRICAL_SURFACE ( 'NONE', #112, 0.1870000000000000551 ) ;
#132 = ORIENTED_EDGE ( 'NONE', *, *, #44, .T. ) ;
#133 = CARTESIAN_POINT ( 'NONE',  ( -1.250000000000000000, 0.0000000000000000000, 0.0000000000000000000 ) ) ;
#134 = CARTESIAN_POINT ( 'NONE',  ( 1.250000000000000000, 0.0000000000000000000, 0.0000000000000000000 ) ) ;
#135 =( NAMED_UNIT ( * ) PLANE_ANGLE_UNIT ( ) SI_UNIT ( $, .RADIAN. ) );
#136 = PRODUCT_DEFINITION_FORMATION_WITH_SPECIFIED_SOURCE ( 'ANY', '', #13, .NOT_KNOWN. ) ;
#137 = FILL_AREA_STYLE ('',( #151 ) ) ;
#138 = CIRCLE ( 'NONE', #145, 0.1870000000000000551 ) ;
#139 = MANIFOLD_SOLID_BREP ( 'Boss-Extrude1', #196 ) ;
#140 = VECTOR ( 'NONE', #43, 39.37007874015748143 ) ;
#141 = CARTESIAN_POINT ( 'NONE',  ( -1.250000000000000000, 0.0000000000000000000, 0.0000000000000000000 ) ) ;
#142 = DIRECTION ( 'NONE',  ( 0.0000000000000000000, 0.0000000000000000000, -1.000000000000000000 ) ) ;
#143 = ORIENTED_EDGE ( 'NONE', *, *, #49, .T. ) ;
#144 = CARTESIAN_POINT ( 'NONE',  ( 1.250000000000000000, 0.0000000000000000000, 0.0000000000000000000 ) ) ;
#145 = AXIS2_PLACEMENT_3D ( 'NONE', #213, #159, #28 ) ;
#146 = FACE_OUTER_BOUND ( 'NONE', #51, .T. ) ;
#147 = DIRECTION ( 'NONE',  ( 0.0000000000000000000, 0.0000000000000000000, -1.000000000000000000 ) ) ;
#148 = PRODUCT_RELATED_PRODUCT_CATEGORY ( 'part', '', ( #13 ) ) ;
#149 = CARTESIAN_POINT ( 'NONE',  ( 1.250000000000000000, 0.0000000000000000000, 0.0000000000000000000 ) ) ;
#150 = DIRECTION ( 'NONE',  ( 1.000000000000000000, 0.0000000000000000000, 0.0000000000000000000 ) ) ;
#151 = FILL_AREA_STYLE_COLOUR ( '', #167 ) ;
#152 = APPLICATION_PROTOCOL_DEFINITION ( 'draft international standard', 'automotive_design', 1998, #5 ) ;
#153 = EDGE_LOOP ( 'NONE', ( #157, #163 ) ) ;
#154 =( NAMED_UNIT ( * ) PLANE_ANGLE_UNIT ( ) SI_UNIT ( $, .RADIAN. ) );
#155 = DIRECTION ( 'NONE',  ( 1.000000000000000000, 0.0000000000000000000, 0.0000000000000000000 ) ) ;
#156 = DIRECTION ( 'NONE',  ( 1.000000000000000000, 0.0000000000000000000, 0.0000000000000000000 ) ) ;
#157 = ORIENTED_EDGE ( 'NONE', *, *, #33, .F. ) ;
#158 = CARTESIAN_POINT ( 'NONE',  ( -1.250000000000000000, 0.0000000000000000000, 0.0000000000000000000 ) ) ;
#159 = DIRECTION ( 'NONE',  ( 1.000000000000000000, 0.0000000000000000000, 0.0000000000000000000 ) ) ;
#160 = CIRCLE ( 'NONE', #187, 0.09800000000000000377 ) ;
#161 = AXIS2_PLACEMENT_3D ( 'NONE', #26, #215, #175 ) ;
#162 = LINE ( 'NONE', #127, #40 ) ;
#163 = ORIENTED_EDGE ( 'NONE', *, *, #205, .F. ) ;
#164 = ORIENTED_EDGE ( 'NONE', *, *, #1, .F. ) ;
#165 = STYLED_ITEM ( 'NONE', ( #116 ), #198 ) ;
#166 = DIRECTION ( 'NONE',  ( 1.000000000000000000, 0.0000000000000000000, 0.0000000000000000000 ) ) ;
#167 = COLOUR_RGB ( '',0.2980392156862745057, 0.2980392156862745057, 0.2980392156862745057 ) ;
#168 = EDGE_CURVE ( 'NONE', #199, #120, #113, .T. ) ;
#169 = ORIENTED_EDGE ( 'NONE', *, *, #97, .F. ) ;
#170 = PRODUCT_CONTEXT ( 'NONE', #5, 'mechanical' ) ;
#171 = DIRECTION ( 'NONE',  ( -1.000000000000000000, -0.0000000000000000000, -0.0000000000000000000 ) ) ;
#172 = AXIS2_PLACEMENT_3D ( 'NONE', #158, #111, #15 ) ;
#173 = DIRECTION ( 'NONE',  ( -1.000000000000000000, -0.0000000000000000000, -0.0000000000000000000 ) ) ;
#174 = VERTEX_POINT ( 'NONE', #185 ) ;
#175 = DIRECTION ( 'NONE',  ( 0.0000000000000000000, 0.0000000000000000000, -1.000000000000000000 ) ) ;
#176 = FACE_OUTER_BOUND ( 'NONE', #194, .T. ) ;
#177 = DIRECTION ( 'NONE',  ( 0.0000000000000000000, 0.0000000000000000000, 1.000000000000000000 ) ) ;
#178 = PRESENTATION_LAYER_ASSIGNMENT (  '', '', ( #218 ) ) ;
#179 = PLANE ( 'NONE',  #202 ) ;
#180 = VERTEX_POINT ( 'NONE', #70 ) ;
#181 = EDGE_LOOP ( 'NONE', ( #2, #98, #20, #65 ) ) ;
#182 = CIRCLE ( 'NONE', #25, 0.1870000000000000551 ) ;
#183 = AXIS2_PLACEMENT_3D ( 'NONE', #221, #79, #7 ) ;
#184 = FACE_BOUND ( 'NONE', #95, .T. ) ;
#185 = CARTESIAN_POINT ( 'NONE',  ( 1.250000000000000000, 0.0000000000000000000, 0.1870000000000000551 ) ) ;
#186 =( CONVERSION_BASED_UNIT ( 'INCH', #207 ) LENGTH_UNIT ( ) NAMED_UNIT ( #82 ) );
#187 = AXIS2_PLACEMENT_3D ( 'NONE', #141, #109, #12 ) ;
#188 = APPLICATION_CONTEXT ( 'automotive_design' ) ;
#189 =( CONVERSION_BASED_UNIT ( 'INCH', #105 ) LENGTH_UNIT ( ) NAMED_UNIT ( #223 ) );
#190 = FACE_OUTER_BOUND ( 'NONE', #4, .T. ) ;
#191 = CARTESIAN_POINT ( 'NONE',  ( 1.250000000000000000, 0.0000000000000000000, 0.1870000000000000551 ) ) ;
#192 = LINE ( 'NONE', #191, #140 ) ;
#193 = CARTESIAN_POINT ( 'NONE',  ( -1.250000000000000000, 0.0000000000000000000, 0.0000000000000000000 ) ) ;
#194 = EDGE_LOOP ( 'NONE', ( #74, #92, #67, #52 ) ) ;
#195 = VERTEX_POINT ( 'NONE', #10 ) ;
#196 = CLOSED_SHELL ( 'NONE', ( #129, #18, #81, #117, #32, #63 ) ) ;
#197 = CARTESIAN_POINT ( 'NONE',  ( 1.250000000000000000, 2.290089514405551281E-17, -0.1870000000000000551 ) ) ;
#198 = ADVANCED_BREP_SHAPE_REPRESENTATION ( 'WCP-0208 Rev1', ( #139, #96 ), #78 ) ;
#199 = VERTEX_POINT ( 'NONE', #101 ) ;
#200 = ORIENTED_EDGE ( 'NONE', *, *, #37, .F. ) ;
#201 = CIRCLE ( 'NONE', #172, 0.09800000000000000377 ) ;
#202 = AXIS2_PLACEMENT_3D ( 'NONE', #133, #150, #206 ) ;
#203 = ORIENTED_EDGE ( 'NONE', *, *, #64, .T. ) ;
#204 = ORIENTED_EDGE ( 'NONE', *, *, #44, .F. ) ;
#205 = EDGE_CURVE ( 'NONE', #199, #62, #110, .T. ) ;
#206 = DIRECTION ( 'NONE',  ( 0.0000000000000000000, 0.0000000000000000000, -1.000000000000000000 ) ) ;
#207 = LENGTH_MEASURE_WITH_UNIT ( LENGTH_MEASURE( 0.02539999999999999897 ), #50 );
#208 =( CONVERSION_BASED_UNIT ( 'INCH', #45 ) LENGTH_UNIT ( ) NAMED_UNIT ( #130 ) );
#209 = DIRECTION ( 'NONE',  ( 0.0000000000000000000, 0.0000000000000000000, 1.000000000000000000 ) ) ;
#210 =( LENGTH_UNIT ( ) NAMED_UNIT ( * ) SI_UNIT ( $, .METRE. ) );
#211 = PRODUCT_DEFINITION_SHAPE ( 'NONE', 'NONE',  #104 ) ;
#212 = DIRECTION ( 'NONE',  ( 1.000000000000000000, 0.0000000000000000000, 0.0000000000000000000 ) ) ;
#213 = CARTESIAN_POINT ( 'NONE',  ( -1.250000000000000000, 0.0000000000000000000, 0.0000000000000000000 ) ) ;
#214 = CIRCLE ( 'NONE', #17, 0.1870000000000000551 ) ;
#215 = DIRECTION ( 'NONE',  ( 1.000000000000000000, 0.0000000000000000000, 0.0000000000000000000 ) ) ;
#216 = DIRECTION ( 'NONE',  ( -1.000000000000000000, -0.0000000000000000000, -0.0000000000000000000 ) ) ;
#217 = COLOUR_RGB ( '',0.2980392156862745057, 0.2980392156862745057, 0.2980392156862745057 ) ;
#218 = STYLED_ITEM ( 'NONE', ( #6 ), #139 ) ;
#219 = DIRECTION ( 'NONE',  ( 0.0000000000000000000, 0.0000000000000000000, -1.000000000000000000 ) ) ;
#220 = LINE ( 'NONE', #42, #77 ) ;
#221 = CARTESIAN_POINT ( 'NONE',  ( 1.250000000000000000, 0.0000000000000000000, 0.0000000000000000000 ) ) ;
#222 = ORIENTED_EDGE ( 'NONE', *, *, #97, .T. ) ;
#223 = DIMENSIONAL_EXPONENTS ( 1.000000000000000000, 0.0000000000000000000, 0.0000000000000000000, 0.0000000000000000000, 0.0000000000000000000, 0.0000000000000000000, 0.0000000000000000000 ) ;
ENDSEC;
END-ISO-10303-21;
