ISO-10303-21;
HEADER;
FILE_DESCRIPTION (( 'STEP AP214' ),
    '1' );
FILE_NAME ('WCP-0207 Rev1.step',
    '2019-12-12T00:45:18',
    ( '' ),
    ( '' ),
    'SwSTEP 2.0',
    'SolidWorks 2018',
    '' );
FILE_SCHEMA (( 'AUTOMOTIVE_DESIGN' ));
ENDSEC;

DATA;
#1 = AXIS2_PLACEMENT_3D ( 'NONE', #11, #51, #220 ) ;
#2 = EDGE_LOOP ( 'NONE', ( #142, #155 ) ) ;
#3 = ORIENTED_EDGE ( 'NONE', *, *, #37, .T. ) ;
#4 = SURFACE_SIDE_STYLE ('',( #150 ) ) ;
#5 = FILL_AREA_STYLE ('',( #139 ) ) ;
#6 =( NAMED_UNIT ( * ) PLANE_ANGLE_UNIT ( ) SI_UNIT ( $, .RADIAN. ) );
#7 = APPLICATION_CONTEXT ( 'automotive_design' ) ;
#8 =( LENGTH_UNIT ( ) NAMED_UNIT ( * ) SI_UNIT ( $, .METRE. ) );
#9 = ORIENTED_EDGE ( 'NONE', *, *, #165, .T. ) ;
#10 = EDGE_CURVE ( 'NONE', #197, #137, #76, .T. ) ;
#11 = CARTESIAN_POINT ( 'NONE',  ( 1.000000000000000000, 0.0000000000000000000, 0.0000000000000000000 ) ) ;
#12 = CIRCLE ( 'NONE', #183, 0.1870000000000000551 ) ;
#13 = CARTESIAN_POINT ( 'NONE',  ( 1.000000000000000000, 0.0000000000000000000, 0.0000000000000000000 ) ) ;
#14 = ADVANCED_FACE ( 'NONE', ( #200 ), #31, .T. ) ;
#15 = CARTESIAN_POINT ( 'NONE',  ( 1.000000000000000000, 0.0000000000000000000, 0.0000000000000000000 ) ) ;
#16 =( GEOMETRIC_REPRESENTATION_CONTEXT ( 3 ) GLOBAL_UNCERTAINTY_ASSIGNED_CONTEXT ( ( #101 ) ) GLOBAL_UNIT_ASSIGNED_CONTEXT ( ( #185, #104, #105 ) ) REPRESENTATION_CONTEXT ( 'NONE', 'WORKASPACE' ) );
#17 = VERTEX_POINT ( 'NONE', #111 ) ;
#18 = EDGE_CURVE ( 'NONE', #182, #114, #59, .T. ) ;
#19 = PRESENTATION_STYLE_ASSIGNMENT (( #61 ) ) ;
#20 = CARTESIAN_POINT ( 'NONE',  ( 1.000000000000000000, 1.200153863164406105E-17, -0.09800000000000000377 ) ) ;
#21 = DIRECTION ( 'NONE',  ( 0.0000000000000000000, 0.0000000000000000000, -1.000000000000000000 ) ) ;
#22 = FACE_BOUND ( 'NONE', #2, .T. ) ;
#23 = DIRECTION ( 'NONE',  ( 0.0000000000000000000, 0.0000000000000000000, -1.000000000000000000 ) ) ;
#24 = DIRECTION ( 'NONE',  ( 0.0000000000000000000, 0.0000000000000000000, 1.000000000000000000 ) ) ;
#25 = UNCERTAINTY_MEASURE_WITH_UNIT (LENGTH_MEASURE( 1.000000000000000082E-05 ), #81, 'distance_accuracy_value', 'NONE');
#26 = FACE_OUTER_BOUND ( 'NONE', #96, .T. ) ;
#27 = DIRECTION ( 'NONE',  ( 1.000000000000000000, 0.0000000000000000000, 0.0000000000000000000 ) ) ;
#28 = AXIS2_PLACEMENT_3D ( 'NONE', #121, #115, #24 ) ;
#29 =( LENGTH_UNIT ( ) NAMED_UNIT ( * ) SI_UNIT ( $, .METRE. ) );
#30 = ORIENTED_EDGE ( 'NONE', *, *, #222, .T. ) ;
#31 = CYLINDRICAL_SURFACE ( 'NONE', #88, 0.1870000000000000551 ) ;
#32 = CARTESIAN_POINT ( 'NONE',  ( -1.000000000000000000, 1.200153863164406105E-17, -0.09800000000000000377 ) ) ;
#33 = LINE ( 'NONE', #70, #219 ) ;
#34 = CARTESIAN_POINT ( 'NONE',  ( 1.000000000000000000, 2.290089514405551281E-17, -0.1870000000000000551 ) ) ;
#35 = ORIENTED_EDGE ( 'NONE', *, *, #192, .F. ) ;
#36 = VERTEX_POINT ( 'NONE', #32 ) ;
#37 = EDGE_CURVE ( 'NONE', #83, #182, #163, .T. ) ;
#38 = CIRCLE ( 'NONE', #135, 0.1870000000000000551 ) ;
#39 =( GEOMETRIC_REPRESENTATION_CONTEXT ( 3 ) GLOBAL_UNCERTAINTY_ASSIGNED_CONTEXT ( ( #49 ) ) GLOBAL_UNIT_ASSIGNED_CONTEXT ( ( #43, #48, #123 ) ) REPRESENTATION_CONTEXT ( 'NONE', 'WORKASPACE' ) );
#40 = PRODUCT_DEFINITION_CONTEXT ( 'detailed design', #162, 'design' ) ;
#41 = LENGTH_MEASURE_WITH_UNIT ( LENGTH_MEASURE( 0.02539999999999999897 ), #29 );
#42 = ORIENTED_EDGE ( 'NONE', *, *, #192, .T. ) ;
#43 =( CONVERSION_BASED_UNIT ( 'INCH', #41 ) LENGTH_UNIT ( ) NAMED_UNIT ( #149 ) );
#44 = ORIENTED_EDGE ( 'NONE', *, *, #165, .F. ) ;
#45 = PLANE ( 'NONE',  #64 ) ;
#46 = ORIENTED_EDGE ( 'NONE', *, *, #71, .T. ) ;
#47 = DIRECTION ( 'NONE',  ( 0.0000000000000000000, 0.0000000000000000000, -1.000000000000000000 ) ) ;
#48 =( NAMED_UNIT ( * ) PLANE_ANGLE_UNIT ( ) SI_UNIT ( $, .RADIAN. ) );
#49 = UNCERTAINTY_MEASURE_WITH_UNIT (LENGTH_MEASURE( 1.000000000000000082E-05 ), #43, 'distance_accuracy_value', 'NONE');
#50 = DIRECTION ( 'NONE',  ( -1.000000000000000000, -0.0000000000000000000, -0.0000000000000000000 ) ) ;
#51 = DIRECTION ( 'NONE',  ( 1.000000000000000000, 0.0000000000000000000, 0.0000000000000000000 ) ) ;
#52 = COLOUR_RGB ( '',0.2980392156862745057, 0.2980392156862745057, 0.2980392156862745057 ) ;
#53 = EDGE_CURVE ( 'NONE', #116, #114, #103, .T. ) ;
#54 = ORIENTED_EDGE ( 'NONE', *, *, #18, .T. ) ;
#55 = LENGTH_MEASURE_WITH_UNIT ( LENGTH_MEASURE( 0.02539999999999999897 ), #106 );
#56 = ORIENTED_EDGE ( 'NONE', *, *, #10, .T. ) ;
#57 = CARTESIAN_POINT ( 'NONE',  ( 1.000000000000000000, 0.0000000000000000000, 0.09800000000000000377 ) ) ;
#58 = CARTESIAN_POINT ( 'NONE',  ( 1.000000000000000000, 2.290089514405551281E-17, -0.1870000000000000551 ) ) ;
#59 = LINE ( 'NONE', #34, #141 ) ;
#60 = CARTESIAN_POINT ( 'NONE',  ( -1.000000000000000000, 0.0000000000000000000, 0.0000000000000000000 ) ) ;
#61 = SURFACE_STYLE_USAGE ( .BOTH. , #205 ) ;
#62 = DIRECTION ( 'NONE',  ( -1.000000000000000000, -0.0000000000000000000, -0.0000000000000000000 ) ) ;
#63 = PRODUCT_DEFINITION_SHAPE ( 'NONE', 'NONE',  #119 ) ;
#64 = AXIS2_PLACEMENT_3D ( 'NONE', #60, #201, #23 ) ;
#65 = ORIENTED_EDGE ( 'NONE', *, *, #80, .F. ) ;
#66 = DIRECTION ( 'NONE',  ( 0.0000000000000000000, 0.0000000000000000000, 1.000000000000000000 ) ) ;
#67 = APPLICATION_PROTOCOL_DEFINITION ( 'draft international standard', 'automotive_design', 1998, #7 ) ;
#68 = CIRCLE ( 'NONE', #204, 0.09800000000000000377 ) ;
#69 = DIRECTION ( 'NONE',  ( -1.000000000000000000, -0.0000000000000000000, -0.0000000000000000000 ) ) ;
#70 = CARTESIAN_POINT ( 'NONE',  ( 1.000000000000000000, 0.0000000000000000000, 0.1870000000000000551 ) ) ;
#71 = EDGE_CURVE ( 'NONE', #114, #116, #12, .T. ) ;
#72 = DIRECTION ( 'NONE',  ( -1.000000000000000000, -0.0000000000000000000, -0.0000000000000000000 ) ) ;
#73 = VECTOR ( 'NONE', #215, 39.37007874015748143 ) ;
#74 = ADVANCED_FACE ( 'NONE', ( #26 ), #171, .F. ) ;
#75 = AXIS2_PLACEMENT_3D ( 'NONE', #108, #27, #191 ) ;
#76 = CIRCLE ( 'NONE', #1, 0.09800000000000000377 ) ;
#77 = PRESENTATION_LAYER_ASSIGNMENT (  '', '', ( #90 ) ) ;
#78 = CARTESIAN_POINT ( 'NONE',  ( 1.000000000000000000, 0.0000000000000000000, 0.0000000000000000000 ) ) ;
#79 = ORIENTED_EDGE ( 'NONE', *, *, #18, .F. ) ;
#80 = EDGE_CURVE ( 'NONE', #83, #116, #33, .T. ) ;
#81 =( CONVERSION_BASED_UNIT ( 'INCH', #166 ) LENGTH_UNIT ( ) NAMED_UNIT ( #174 ) );
#82 = PRODUCT_CONTEXT ( 'NONE', #7, 'mechanical' ) ;
#83 = VERTEX_POINT ( 'NONE', #145 ) ;
#84 = DIRECTION ( 'NONE',  ( 0.0000000000000000000, 0.0000000000000000000, -1.000000000000000000 ) ) ;
#85 = DIRECTION ( 'NONE',  ( 0.0000000000000000000, 0.0000000000000000000, -1.000000000000000000 ) ) ;
#86 = ADVANCED_FACE ( 'NONE', ( #208 ), #223, .F. ) ;
#87 = CLOSED_SHELL ( 'NONE', ( #74, #169, #178, #176, #14, #86 ) ) ;
#88 = AXIS2_PLACEMENT_3D ( 'NONE', #146, #50, #110 ) ;
#89 = AXIS2_PLACEMENT_3D ( 'NONE', #93, #187, #136 ) ;
#90 = STYLED_ITEM ( 'NONE', ( #170 ), #167 ) ;
#91 = FILL_AREA_STYLE ('',( #117 ) ) ;
#92 = LINE ( 'NONE', #94, #154 ) ;
#93 = CARTESIAN_POINT ( 'NONE',  ( 1.000000000000000000, 0.0000000000000000000, 0.0000000000000000000 ) ) ;
#94 = CARTESIAN_POINT ( 'NONE',  ( 1.000000000000000000, 0.0000000000000000000, 0.09800000000000000377 ) ) ;
#95 = CARTESIAN_POINT ( 'NONE',  ( 1.000000000000000000, 0.0000000000000000000, 0.0000000000000000000 ) ) ;
#96 = EDGE_LOOP ( 'NONE', ( #56, #221, #44, #118 ) ) ;
#97 = DIRECTION ( 'NONE',  ( 0.0000000000000000000, 0.0000000000000000000, 1.000000000000000000 ) ) ;
#98 = ORIENTED_EDGE ( 'NONE', *, *, #126, .T. ) ;
#99 = DIRECTION ( 'NONE',  ( 1.000000000000000000, 0.0000000000000000000, 0.0000000000000000000 ) ) ;
#100 = AXIS2_PLACEMENT_3D ( 'NONE', #78, #140, #21 ) ;
#101 = UNCERTAINTY_MEASURE_WITH_UNIT (LENGTH_MEASURE( 1.000000000000000082E-05 ), #185, 'distance_accuracy_value', 'NONE');
#102 = LINE ( 'NONE', #213, #73 ) ;
#103 = CIRCLE ( 'NONE', #159, 0.1870000000000000551 ) ;
#104 =( NAMED_UNIT ( * ) PLANE_ANGLE_UNIT ( ) SI_UNIT ( $, .RADIAN. ) );
#105 =( NAMED_UNIT ( * ) SI_UNIT ( $, .STERADIAN. ) SOLID_ANGLE_UNIT ( ) );
#106 =( LENGTH_UNIT ( ) NAMED_UNIT ( * ) SI_UNIT ( $, .METRE. ) );
#107 = PRODUCT_DEFINITION_FORMATION_WITH_SPECIFIED_SOURCE ( 'ANY', '', #130, .NOT_KNOWN. ) ;
#108 = CARTESIAN_POINT ( 'NONE',  ( -1.000000000000000000, 0.0000000000000000000, 0.0000000000000000000 ) ) ;
#109 = FACE_BOUND ( 'NONE', #206, .T. ) ;
#110 = DIRECTION ( 'NONE',  ( 0.0000000000000000000, 0.0000000000000000000, 1.000000000000000000 ) ) ;
#111 = CARTESIAN_POINT ( 'NONE',  ( -1.000000000000000000, 0.0000000000000000000, 0.09800000000000000377 ) ) ;
#112 = FACE_OUTER_BOUND ( 'NONE', #190, .T. ) ;
#113 = EDGE_LOOP ( 'NONE', ( #177, #160 ) ) ;
#114 = VERTEX_POINT ( 'NONE', #203 ) ;
#115 = DIRECTION ( 'NONE',  ( -1.000000000000000000, -0.0000000000000000000, -0.0000000000000000000 ) ) ;
#116 = VERTEX_POINT ( 'NONE', #158 ) ;
#117 = FILL_AREA_STYLE_COLOUR ( '', #52 ) ;
#118 = ORIENTED_EDGE ( 'NONE', *, *, #222, .F. ) ;
#119 = PRODUCT_DEFINITION ( 'UNKNOWN', '', #107, #40 ) ;
#120 = SURFACE_STYLE_USAGE ( .BOTH. , #4 ) ;
#121 = CARTESIAN_POINT ( 'NONE',  ( 1.000000000000000000, 0.0000000000000000000, 0.0000000000000000000 ) ) ;
#122 = ORIENTED_EDGE ( 'NONE', *, *, #216, .T. ) ;
#123 =( NAMED_UNIT ( * ) SI_UNIT ( $, .STERADIAN. ) SOLID_ANGLE_UNIT ( ) );
#124 = CARTESIAN_POINT ( 'NONE',  ( -1.000000000000000000, 0.0000000000000000000, 0.0000000000000000000 ) ) ;
#125 =( NAMED_UNIT ( * ) SI_UNIT ( $, .STERADIAN. ) SOLID_ANGLE_UNIT ( ) );
#126 = EDGE_CURVE ( 'NONE', #137, #197, #131, .T. ) ;
#127 =( GEOMETRIC_REPRESENTATION_CONTEXT ( 3 ) GLOBAL_UNCERTAINTY_ASSIGNED_CONTEXT ( ( #25 ) ) GLOBAL_UNIT_ASSIGNED_CONTEXT ( ( #81, #6, #125 ) ) REPRESENTATION_CONTEXT ( 'NONE', 'WORKASPACE' ) );
#128 = CARTESIAN_POINT ( 'NONE',  ( -1.000000000000000000, 0.0000000000000000000, 0.0000000000000000000 ) ) ;
#129 = PRODUCT_RELATED_PRODUCT_CATEGORY ( 'part', '', ( #130 ) ) ;
#130 = PRODUCT ( 'WCP-0207 Rev1', 'WCP-0207 Rev1', '', ( #82 ) ) ;
#131 = CIRCLE ( 'NONE', #89, 0.09800000000000000377 ) ;
#132 = ORIENTED_EDGE ( 'NONE', *, *, #209, .F. ) ;
#133 = EDGE_LOOP ( 'NONE', ( #132, #98, #30, #35 ) ) ;
#134 = MANIFOLD_SOLID_BREP ( 'Boss-Extrude1', #87 ) ;
#135 = AXIS2_PLACEMENT_3D ( 'NONE', #95, #207, #47 ) ;
#136 = DIRECTION ( 'NONE',  ( 0.0000000000000000000, 0.0000000000000000000, -1.000000000000000000 ) ) ;
#137 = VERTEX_POINT ( 'NONE', #20 ) ;
#138 = PLANE ( 'NONE',  #100 ) ;
#139 = FILL_AREA_STYLE_COLOUR ( '', #188 ) ;
#140 = DIRECTION ( 'NONE',  ( 1.000000000000000000, 0.0000000000000000000, 0.0000000000000000000 ) ) ;
#141 = VECTOR ( 'NONE', #72, 39.37007874015748143 ) ;
#142 = ORIENTED_EDGE ( 'NONE', *, *, #10, .F. ) ;
#143 = DIRECTION ( 'NONE',  ( 0.0000000000000000000, 0.0000000000000000000, -1.000000000000000000 ) ) ;
#144 = FACE_OUTER_BOUND ( 'NONE', #113, .T. ) ;
#145 = CARTESIAN_POINT ( 'NONE',  ( 1.000000000000000000, 0.0000000000000000000, 0.1870000000000000551 ) ) ;
#146 = CARTESIAN_POINT ( 'NONE',  ( 1.000000000000000000, 0.0000000000000000000, 0.0000000000000000000 ) ) ;
#147 = DIMENSIONAL_EXPONENTS ( 1.000000000000000000, 0.0000000000000000000, 0.0000000000000000000, 0.0000000000000000000, 0.0000000000000000000, 0.0000000000000000000, 0.0000000000000000000 ) ;
#148 = CARTESIAN_POINT ( 'NONE',  ( -1.000000000000000000, 0.0000000000000000000, 0.0000000000000000000 ) ) ;
#149 = DIMENSIONAL_EXPONENTS ( 1.000000000000000000, 0.0000000000000000000, 0.0000000000000000000, 0.0000000000000000000, 0.0000000000000000000, 0.0000000000000000000, 0.0000000000000000000 ) ;
#150 = SURFACE_STYLE_FILL_AREA ( #5 ) ;
#151 = AXIS2_PLACEMENT_3D ( 'NONE', #15, #195, #85 ) ;
#152 = ORIENTED_EDGE ( 'NONE', *, *, #37, .F. ) ;
#153 = AXIS2_PLACEMENT_3D ( 'NONE', #13, #69, #97 ) ;
#154 = VECTOR ( 'NONE', #62, 39.37007874015748143 ) ;
#155 = ORIENTED_EDGE ( 'NONE', *, *, #126, .F. ) ;
#156 = DIRECTION ( 'NONE',  ( 0.0000000000000000000, 0.0000000000000000000, -1.000000000000000000 ) ) ;
#157 = CIRCLE ( 'NONE', #75, 0.09800000000000000377 ) ;
#158 = CARTESIAN_POINT ( 'NONE',  ( -1.000000000000000000, 0.0000000000000000000, 0.1870000000000000551 ) ) ;
#159 = AXIS2_PLACEMENT_3D ( 'NONE', #128, #198, #143 ) ;
#160 = ORIENTED_EDGE ( 'NONE', *, *, #71, .F. ) ;
#161 = DIRECTION ( 'NONE',  ( 1.000000000000000000, 0.0000000000000000000, 0.0000000000000000000 ) ) ;
#162 = APPLICATION_CONTEXT ( 'automotive_design' ) ;
#163 = CIRCLE ( 'NONE', #151, 0.1870000000000000551 ) ;
#164 = ORIENTED_EDGE ( 'NONE', *, *, #53, .T. ) ;
#165 = EDGE_CURVE ( 'NONE', #17, #36, #68, .T. ) ;
#166 = LENGTH_MEASURE_WITH_UNIT ( LENGTH_MEASURE( 0.02539999999999999897 ), #8 );
#167 = ADVANCED_BREP_SHAPE_REPRESENTATION ( 'WCP-0207 Rev1', ( #134, #179 ), #127 ) ;
#168 = CARTESIAN_POINT ( 'NONE',  ( 1.000000000000000000, 0.0000000000000000000, 0.0000000000000000000 ) ) ;
#169 = ADVANCED_FACE ( 'NONE', ( #211 ), #210, .T. ) ;
#170 = PRESENTATION_STYLE_ASSIGNMENT (( #120 ) ) ;
#171 = CYLINDRICAL_SURFACE ( 'NONE', #153, 0.09800000000000000377 ) ;
#172 = DIRECTION ( 'NONE',  ( 0.0000000000000000000, 0.0000000000000000000, 1.000000000000000000 ) ) ;
#173 = MECHANICAL_DESIGN_GEOMETRIC_PRESENTATION_REPRESENTATION (  '', ( #199 ), #16 ) ;
#174 = DIMENSIONAL_EXPONENTS ( 1.000000000000000000, 0.0000000000000000000, 0.0000000000000000000, 0.0000000000000000000, 0.0000000000000000000, 0.0000000000000000000, 0.0000000000000000000 ) ;
#175 = DIRECTION ( 'NONE',  ( -1.000000000000000000, -0.0000000000000000000, -0.0000000000000000000 ) ) ;
#176 = ADVANCED_FACE ( 'NONE', ( #144, #109 ), #45, .F. ) ;
#177 = ORIENTED_EDGE ( 'NONE', *, *, #53, .F. ) ;
#178 = ADVANCED_FACE ( 'NONE', ( #112, #22 ), #138, .T. ) ;
#179 = AXIS2_PLACEMENT_3D ( 'NONE', #193, #66, #161 ) ;
#180 = SURFACE_STYLE_FILL_AREA ( #91 ) ;
#181 = ORIENTED_EDGE ( 'NONE', *, *, #80, .T. ) ;
#182 = VERTEX_POINT ( 'NONE', #58 ) ;
#183 = AXIS2_PLACEMENT_3D ( 'NONE', #148, #99, #84 ) ;
#184 = EDGE_LOOP ( 'NONE', ( #79, #152, #181, #164 ) ) ;
#185 =( CONVERSION_BASED_UNIT ( 'INCH', #55 ) LENGTH_UNIT ( ) NAMED_UNIT ( #147 ) );
#186 = AXIS2_PLACEMENT_3D ( 'NONE', #168, #217, #172 ) ;
#187 = DIRECTION ( 'NONE',  ( 1.000000000000000000, 0.0000000000000000000, 0.0000000000000000000 ) ) ;
#188 = COLOUR_RGB ( '',0.2980392156862745057, 0.2980392156862745057, 0.2980392156862745057 ) ;
#189 = DIRECTION ( 'NONE',  ( 1.000000000000000000, 0.0000000000000000000, 0.0000000000000000000 ) ) ;
#190 = EDGE_LOOP ( 'NONE', ( #3, #122 ) ) ;
#191 = DIRECTION ( 'NONE',  ( 0.0000000000000000000, 0.0000000000000000000, -1.000000000000000000 ) ) ;
#192 = EDGE_CURVE ( 'NONE', #36, #17, #157, .T. ) ;
#193 = CARTESIAN_POINT ( 'NONE',  ( 0.0000000000000000000, 0.0000000000000000000, 0.0000000000000000000 ) ) ;
#194 = APPLICATION_PROTOCOL_DEFINITION ( 'draft international standard', 'automotive_design', 1998, #162 ) ;
#195 = DIRECTION ( 'NONE',  ( 1.000000000000000000, 0.0000000000000000000, 0.0000000000000000000 ) ) ;
#196 = PRESENTATION_LAYER_ASSIGNMENT (  '', '', ( #199 ) ) ;
#197 = VERTEX_POINT ( 'NONE', #57 ) ;
#198 = DIRECTION ( 'NONE',  ( 1.000000000000000000, 0.0000000000000000000, 0.0000000000000000000 ) ) ;
#199 = STYLED_ITEM ( 'NONE', ( #19 ), #134 ) ;
#200 = FACE_OUTER_BOUND ( 'NONE', #184, .T. ) ;
#201 = DIRECTION ( 'NONE',  ( 1.000000000000000000, 0.0000000000000000000, 0.0000000000000000000 ) ) ;
#202 = EDGE_LOOP ( 'NONE', ( #212, #54, #46, #65 ) ) ;
#203 = CARTESIAN_POINT ( 'NONE',  ( -1.000000000000000000, 2.290089514405551281E-17, -0.1870000000000000551 ) ) ;
#204 = AXIS2_PLACEMENT_3D ( 'NONE', #124, #189, #156 ) ;
#205 = SURFACE_SIDE_STYLE ('',( #180 ) ) ;
#206 = EDGE_LOOP ( 'NONE', ( #9, #42 ) ) ;
#207 = DIRECTION ( 'NONE',  ( 1.000000000000000000, 0.0000000000000000000, 0.0000000000000000000 ) ) ;
#208 = FACE_OUTER_BOUND ( 'NONE', #133, .T. ) ;
#209 = EDGE_CURVE ( 'NONE', #137, #36, #102, .T. ) ;
#210 = CYLINDRICAL_SURFACE ( 'NONE', #28, 0.1870000000000000551 ) ;
#211 = FACE_OUTER_BOUND ( 'NONE', #202, .T. ) ;
#212 = ORIENTED_EDGE ( 'NONE', *, *, #216, .F. ) ;
#213 = CARTESIAN_POINT ( 'NONE',  ( 1.000000000000000000, 1.200153863164406105E-17, -0.09800000000000000377 ) ) ;
#214 = MECHANICAL_DESIGN_GEOMETRIC_PRESENTATION_REPRESENTATION (  '', ( #90 ), #39 ) ;
#215 = DIRECTION ( 'NONE',  ( -1.000000000000000000, -0.0000000000000000000, -0.0000000000000000000 ) ) ;
#216 = EDGE_CURVE ( 'NONE', #182, #83, #38, .T. ) ;
#217 = DIRECTION ( 'NONE',  ( -1.000000000000000000, -0.0000000000000000000, -0.0000000000000000000 ) ) ;
#218 = SHAPE_DEFINITION_REPRESENTATION ( #63, #167 ) ;
#219 = VECTOR ( 'NONE', #175, 39.37007874015748143 ) ;
#220 = DIRECTION ( 'NONE',  ( 0.0000000000000000000, 0.0000000000000000000, -1.000000000000000000 ) ) ;
#221 = ORIENTED_EDGE ( 'NONE', *, *, #209, .T. ) ;
#222 = EDGE_CURVE ( 'NONE', #197, #17, #92, .T. ) ;
#223 = CYLINDRICAL_SURFACE ( 'NONE', #186, 0.09800000000000000377 ) ;
ENDSEC;
END-ISO-10303-21;
