ISO-10303-21;
HEADER;
FILE_DESCRIPTION (( 'STEP AP214' ),
    '1' );
FILE_NAME ('WCP-0206 Rev1.step',
    '2019-12-12T00:45:14',
    ( '' ),
    ( '' ),
    'SwSTEP 2.0',
    'SolidWorks 2018',
    '' );
FILE_SCHEMA (( 'AUTOMOTIVE_DESIGN' ));
ENDSEC;

DATA;
#1 = CARTESIAN_POINT ( 'NONE',  ( 0.8750000000000000000, 2.290089514405551281E-17, -0.1870000000000000551 ) ) ;
#2 = LENGTH_MEASURE_WITH_UNIT ( LENGTH_MEASURE( 0.02539999999999999897 ), #22 );
#3 = ORIENTED_EDGE ( 'NONE', *, *, #24, .T. ) ;
#4 = DIRECTION ( 'NONE',  ( 0.0000000000000000000, 0.0000000000000000000, -1.000000000000000000 ) ) ;
#5 = AXIS2_PLACEMENT_3D ( 'NONE', #205, #63, #153 ) ;
#6 = CARTESIAN_POINT ( 'NONE',  ( -0.8750000000000000000, 0.0000000000000000000, 0.0000000000000000000 ) ) ;
#7 = ORIENTED_EDGE ( 'NONE', *, *, #172, .F. ) ;
#8 = EDGE_LOOP ( 'NONE', ( #53, #187 ) ) ;
#9 = AXIS2_PLACEMENT_3D ( 'NONE', #95, #193, #33 ) ;
#10 = CLOSED_SHELL ( 'NONE', ( #80, #190, #91, #77, #28, #171 ) ) ;
#11 = FACE_OUTER_BOUND ( 'NONE', #202, .T. ) ;
#12 = EDGE_CURVE ( 'NONE', #189, #79, #166, .T. ) ;
#13 = AXIS2_PLACEMENT_3D ( 'NONE', #55, #132, #200 ) ;
#14 = ORIENTED_EDGE ( 'NONE', *, *, #34, .F. ) ;
#15 = SURFACE_SIDE_STYLE ('',( #152 ) ) ;
#16 = DIRECTION ( 'NONE',  ( 1.000000000000000000, 0.0000000000000000000, 0.0000000000000000000 ) ) ;
#17 =( NAMED_UNIT ( * ) PLANE_ANGLE_UNIT ( ) SI_UNIT ( $, .RADIAN. ) );
#18 = CIRCLE ( 'NONE', #177, 0.09800000000000000377 ) ;
#19 = DIRECTION ( 'NONE',  ( 0.0000000000000000000, 0.0000000000000000000, 1.000000000000000000 ) ) ;
#20 = ORIENTED_EDGE ( 'NONE', *, *, #12, .T. ) ;
#21 =( GEOMETRIC_REPRESENTATION_CONTEXT ( 3 ) GLOBAL_UNCERTAINTY_ASSIGNED_CONTEXT ( ( #43 ) ) GLOBAL_UNIT_ASSIGNED_CONTEXT ( ( #148, #201, #215 ) ) REPRESENTATION_CONTEXT ( 'NONE', 'WORKASPACE' ) );
#22 =( LENGTH_UNIT ( ) NAMED_UNIT ( * ) SI_UNIT ( $, .METRE. ) );
#23 = PRODUCT_DEFINITION_CONTEXT ( 'detailed design', #86, 'design' ) ;
#24 = EDGE_CURVE ( 'NONE', #198, #175, #131, .T. ) ;
#25 =( GEOMETRIC_REPRESENTATION_CONTEXT ( 3 ) GLOBAL_UNCERTAINTY_ASSIGNED_CONTEXT ( ( #183 ) ) GLOBAL_UNIT_ASSIGNED_CONTEXT ( ( #107, #41, #103 ) ) REPRESENTATION_CONTEXT ( 'NONE', 'WORKASPACE' ) );
#26 = EDGE_LOOP ( 'NONE', ( #96, #38, #27, #60 ) ) ;
#27 = ORIENTED_EDGE ( 'NONE', *, *, #218, .T. ) ;
#28 = ADVANCED_FACE ( 'NONE', ( #174 ), #122, .T. ) ;
#29 = DIRECTION ( 'NONE',  ( -1.000000000000000000, -0.0000000000000000000, -0.0000000000000000000 ) ) ;
#30 = CARTESIAN_POINT ( 'NONE',  ( -0.8750000000000000000, 0.0000000000000000000, 0.0000000000000000000 ) ) ;
#31 = LINE ( 'NONE', #181, #220 ) ;
#32 = FACE_OUTER_BOUND ( 'NONE', #26, .T. ) ;
#33 = DIRECTION ( 'NONE',  ( 0.0000000000000000000, 0.0000000000000000000, -1.000000000000000000 ) ) ;
#34 = EDGE_CURVE ( 'NONE', #189, #198, #40, .T. ) ;
#35 = PLANE ( 'NONE',  #161 ) ;
#36 = AXIS2_PLACEMENT_3D ( 'NONE', #70, #39, #37 ) ;
#37 = DIRECTION ( 'NONE',  ( 0.0000000000000000000, 0.0000000000000000000, -1.000000000000000000 ) ) ;
#38 = ORIENTED_EDGE ( 'NONE', *, *, #206, .T. ) ;
#39 = DIRECTION ( 'NONE',  ( 1.000000000000000000, 0.0000000000000000000, 0.0000000000000000000 ) ) ;
#40 = CIRCLE ( 'NONE', #118, 0.09800000000000000377 ) ;
#41 =( NAMED_UNIT ( * ) PLANE_ANGLE_UNIT ( ) SI_UNIT ( $, .RADIAN. ) );
#42 = FACE_OUTER_BOUND ( 'NONE', #8, .T. ) ;
#43 = UNCERTAINTY_MEASURE_WITH_UNIT (LENGTH_MEASURE( 1.000000000000000082E-05 ), #148, 'distance_accuracy_value', 'NONE');
#44 = LINE ( 'NONE', #160, #111 ) ;
#45 = EDGE_CURVE ( 'NONE', #156, #69, #140, .T. ) ;
#46 = DIRECTION ( 'NONE',  ( -1.000000000000000000, -0.0000000000000000000, -0.0000000000000000000 ) ) ;
#47 = DIRECTION ( 'NONE',  ( 1.000000000000000000, 0.0000000000000000000, 0.0000000000000000000 ) ) ;
#48 = DIMENSIONAL_EXPONENTS ( 1.000000000000000000, 0.0000000000000000000, 0.0000000000000000000, 0.0000000000000000000, 0.0000000000000000000, 0.0000000000000000000, 0.0000000000000000000 ) ;
#49 = PLANE ( 'NONE',  #9 ) ;
#50 = DIRECTION ( 'NONE',  ( 0.0000000000000000000, 0.0000000000000000000, -1.000000000000000000 ) ) ;
#51 = ORIENTED_EDGE ( 'NONE', *, *, #12, .F. ) ;
#52 = DIRECTION ( 'NONE',  ( -1.000000000000000000, -0.0000000000000000000, -0.0000000000000000000 ) ) ;
#53 = ORIENTED_EDGE ( 'NONE', *, *, #186, .F. ) ;
#54 = EDGE_CURVE ( 'NONE', #79, #175, #18, .T. ) ;
#55 = CARTESIAN_POINT ( 'NONE',  ( -0.8750000000000000000, 0.0000000000000000000, 0.0000000000000000000 ) ) ;
#56 = CARTESIAN_POINT ( 'NONE',  ( 0.8750000000000000000, 1.200153863164406105E-17, -0.09800000000000000377 ) ) ;
#57 = EDGE_LOOP ( 'NONE', ( #14, #7 ) ) ;
#58 = PRODUCT_CONTEXT ( 'NONE', #147, 'mechanical' ) ;
#59 = EDGE_CURVE ( 'NONE', #69, #156, #204, .T. ) ;
#60 = ORIENTED_EDGE ( 'NONE', *, *, #78, .F. ) ;
#61 = PRODUCT_DEFINITION ( 'UNKNOWN', '', #165, #23 ) ;
#62 = PRESENTATION_STYLE_ASSIGNMENT (( #87 ) ) ;
#63 = DIRECTION ( 'NONE',  ( -1.000000000000000000, -0.0000000000000000000, -0.0000000000000000000 ) ) ;
#64 = MECHANICAL_DESIGN_GEOMETRIC_PRESENTATION_REPRESENTATION (  '', ( #155 ), #134 ) ;
#65 = CARTESIAN_POINT ( 'NONE',  ( 0.8750000000000000000, 0.0000000000000000000, 0.1870000000000000551 ) ) ;
#66 = CARTESIAN_POINT ( 'NONE',  ( 0.8750000000000000000, 0.0000000000000000000, 0.0000000000000000000 ) ) ;
#67 = LENGTH_MEASURE_WITH_UNIT ( LENGTH_MEASURE( 0.02539999999999999897 ), #197 );
#68 = DIRECTION ( 'NONE',  ( 1.000000000000000000, 0.0000000000000000000, 0.0000000000000000000 ) ) ;
#69 = VERTEX_POINT ( 'NONE', #1 ) ;
#70 = CARTESIAN_POINT ( 'NONE',  ( 0.8750000000000000000, 0.0000000000000000000, 0.0000000000000000000 ) ) ;
#71 = DIRECTION ( 'NONE',  ( 1.000000000000000000, 0.0000000000000000000, 0.0000000000000000000 ) ) ;
#72 = EDGE_LOOP ( 'NONE', ( #158, #150 ) ) ;
#73 = CARTESIAN_POINT ( 'NONE',  ( -0.8750000000000000000, 1.200153863164406105E-17, -0.09800000000000000377 ) ) ;
#74 = CIRCLE ( 'NONE', #13, 0.1870000000000000551 ) ;
#75 = ORIENTED_EDGE ( 'NONE', *, *, #34, .T. ) ;
#76 = LENGTH_MEASURE_WITH_UNIT ( LENGTH_MEASURE( 0.02539999999999999897 ), #211 );
#77 = ADVANCED_FACE ( 'NONE', ( #42, #169 ), #49, .F. ) ;
#78 = EDGE_CURVE ( 'NONE', #156, #105, #44, .T. ) ;
#79 = VERTEX_POINT ( 'NONE', #121 ) ;
#80 = ADVANCED_FACE ( 'NONE', ( #11 ), #185, .F. ) ;
#81 = CARTESIAN_POINT ( 'NONE',  ( -0.8750000000000000000, 0.0000000000000000000, 0.1870000000000000551 ) ) ;
#82 = DIRECTION ( 'NONE',  ( 0.0000000000000000000, 0.0000000000000000000, 1.000000000000000000 ) ) ;
#83 =( NAMED_UNIT ( * ) SI_UNIT ( $, .STERADIAN. ) SOLID_ANGLE_UNIT ( ) );
#84 = ORIENTED_EDGE ( 'NONE', *, *, #78, .T. ) ;
#85 = DIRECTION ( 'NONE',  ( 1.000000000000000000, 0.0000000000000000000, 0.0000000000000000000 ) ) ;
#86 = APPLICATION_CONTEXT ( 'automotive_design' ) ;
#87 = SURFACE_STYLE_USAGE ( .BOTH. , #149 ) ;
#88 = ADVANCED_BREP_SHAPE_REPRESENTATION ( 'WCP-0206 Rev1', ( #135, #141 ), #21 ) ;
#89 = CARTESIAN_POINT ( 'NONE',  ( 0.8750000000000000000, 0.0000000000000000000, 0.09800000000000000377 ) ) ;
#90 = PRESENTATION_LAYER_ASSIGNMENT (  '', '', ( #155 ) ) ;
#91 = ADVANCED_FACE ( 'NONE', ( #178, #192 ), #35, .T. ) ;
#92 = FACE_OUTER_BOUND ( 'NONE', #146, .T. ) ;
#93 = AXIS2_PLACEMENT_3D ( 'NONE', #124, #143, #162 ) ;
#94 = CARTESIAN_POINT ( 'NONE',  ( -0.8750000000000000000, 0.0000000000000000000, 0.0000000000000000000 ) ) ;
#95 = CARTESIAN_POINT ( 'NONE',  ( -0.8750000000000000000, 0.0000000000000000000, 0.0000000000000000000 ) ) ;
#96 = ORIENTED_EDGE ( 'NONE', *, *, #59, .F. ) ;
#97 = DIRECTION ( 'NONE',  ( 0.0000000000000000000, 0.0000000000000000000, -1.000000000000000000 ) ) ;
#98 = CARTESIAN_POINT ( 'NONE',  ( 0.8750000000000000000, 0.0000000000000000000, 0.0000000000000000000 ) ) ;
#99 = ORIENTED_EDGE ( 'NONE', *, *, #45, .T. ) ;
#100 = SURFACE_STYLE_FILL_AREA ( #214 ) ;
#101 = AXIS2_PLACEMENT_3D ( 'NONE', #98, #47, #50 ) ;
#102 = FILL_AREA_STYLE_COLOUR ( '', #163 ) ;
#103 =( NAMED_UNIT ( * ) SI_UNIT ( $, .STERADIAN. ) SOLID_ANGLE_UNIT ( ) );
#104 = AXIS2_PLACEMENT_3D ( 'NONE', #30, #142, #180 ) ;
#105 = VERTEX_POINT ( 'NONE', #81 ) ;
#106 = ORIENTED_EDGE ( 'NONE', *, *, #172, .T. ) ;
#107 =( CONVERSION_BASED_UNIT ( 'INCH', #2 ) LENGTH_UNIT ( ) NAMED_UNIT ( #151 ) );
#108 = VERTEX_POINT ( 'NONE', #126 ) ;
#109 = PRESENTATION_LAYER_ASSIGNMENT (  '', '', ( #196 ) ) ;
#110 = EDGE_LOOP ( 'NONE', ( #139, #119, #84, #188 ) ) ;
#111 = VECTOR ( 'NONE', #52, 39.37007874015748143 ) ;
#112 = ORIENTED_EDGE ( 'NONE', *, *, #145, .F. ) ;
#113 = AXIS2_PLACEMENT_3D ( 'NONE', #6, #71, #203 ) ;
#114 = CARTESIAN_POINT ( 'NONE',  ( 0.8750000000000000000, 1.200153863164406105E-17, -0.09800000000000000377 ) ) ;
#115 = FILL_AREA_STYLE ('',( #221 ) ) ;
#116 = CIRCLE ( 'NONE', #113, 0.1870000000000000551 ) ;
#117 = DIMENSIONAL_EXPONENTS ( 1.000000000000000000, 0.0000000000000000000, 0.0000000000000000000, 0.0000000000000000000, 0.0000000000000000000, 0.0000000000000000000, 0.0000000000000000000 ) ;
#118 = AXIS2_PLACEMENT_3D ( 'NONE', #179, #85, #157 ) ;
#119 = ORIENTED_EDGE ( 'NONE', *, *, #45, .F. ) ;
#120 =( CONVERSION_BASED_UNIT ( 'INCH', #76 ) LENGTH_UNIT ( ) NAMED_UNIT ( #117 ) );
#121 = CARTESIAN_POINT ( 'NONE',  ( -0.8750000000000000000, 0.0000000000000000000, 0.09800000000000000377 ) ) ;
#122 = CYLINDRICAL_SURFACE ( 'NONE', #5, 0.1870000000000000551 ) ;
#123 = PRODUCT_DEFINITION_SHAPE ( 'NONE', 'NONE',  #61 ) ;
#124 = CARTESIAN_POINT ( 'NONE',  ( 0.8750000000000000000, 0.0000000000000000000, 0.0000000000000000000 ) ) ;
#125 = CIRCLE ( 'NONE', #104, 0.09800000000000000377 ) ;
#126 = CARTESIAN_POINT ( 'NONE',  ( -0.8750000000000000000, 2.290089514405551281E-17, -0.1870000000000000551 ) ) ;
#127 = EDGE_LOOP ( 'NONE', ( #99, #195 ) ) ;
#128 = DIRECTION ( 'NONE',  ( -1.000000000000000000, -0.0000000000000000000, -0.0000000000000000000 ) ) ;
#129 = DIRECTION ( 'NONE',  ( 0.0000000000000000000, 0.0000000000000000000, 1.000000000000000000 ) ) ;
#130 = CIRCLE ( 'NONE', #36, 0.09800000000000000377 ) ;
#131 = LINE ( 'NONE', #114, #170 ) ;
#132 = DIRECTION ( 'NONE',  ( 1.000000000000000000, 0.0000000000000000000, 0.0000000000000000000 ) ) ;
#133 = MECHANICAL_DESIGN_GEOMETRIC_PRESENTATION_REPRESENTATION (  '', ( #196 ), #25 ) ;
#134 =( GEOMETRIC_REPRESENTATION_CONTEXT ( 3 ) GLOBAL_UNCERTAINTY_ASSIGNED_CONTEXT ( ( #219 ) ) GLOBAL_UNIT_ASSIGNED_CONTEXT ( ( #120, #17, #83 ) ) REPRESENTATION_CONTEXT ( 'NONE', 'WORKASPACE' ) );
#135 = MANIFOLD_SOLID_BREP ( 'Boss-Extrude1', #10 ) ;
#136 = CARTESIAN_POINT ( 'NONE',  ( 0.8750000000000000000, 0.0000000000000000000, 0.09800000000000000377 ) ) ;
#137 = PRODUCT_RELATED_PRODUCT_CATEGORY ( 'part', '', ( #216 ) ) ;
#138 = CARTESIAN_POINT ( 'NONE',  ( 0.8750000000000000000, 0.0000000000000000000, 0.0000000000000000000 ) ) ;
#139 = ORIENTED_EDGE ( 'NONE', *, *, #206, .F. ) ;
#140 = CIRCLE ( 'NONE', #222, 0.1870000000000000551 ) ;
#141 = AXIS2_PLACEMENT_3D ( 'NONE', #164, #129, #68 ) ;
#142 = DIRECTION ( 'NONE',  ( 1.000000000000000000, 0.0000000000000000000, 0.0000000000000000000 ) ) ;
#143 = DIRECTION ( 'NONE',  ( -1.000000000000000000, -0.0000000000000000000, -0.0000000000000000000 ) ) ;
#144 = DIRECTION ( 'NONE',  ( -1.000000000000000000, -0.0000000000000000000, -0.0000000000000000000 ) ) ;
#145 = EDGE_CURVE ( 'NONE', #175, #79, #125, .T. ) ;
#146 = EDGE_LOOP ( 'NONE', ( #208, #106, #20, #112 ) ) ;
#147 = APPLICATION_CONTEXT ( 'automotive_design' ) ;
#148 =( CONVERSION_BASED_UNIT ( 'INCH', #67 ) LENGTH_UNIT ( ) NAMED_UNIT ( #48 ) );
#149 = SURFACE_SIDE_STYLE ('',( #100 ) ) ;
#150 = ORIENTED_EDGE ( 'NONE', *, *, #145, .T. ) ;
#151 = DIMENSIONAL_EXPONENTS ( 1.000000000000000000, 0.0000000000000000000, 0.0000000000000000000, 0.0000000000000000000, 0.0000000000000000000, 0.0000000000000000000, 0.0000000000000000000 ) ;
#152 = SURFACE_STYLE_FILL_AREA ( #115 ) ;
#153 = DIRECTION ( 'NONE',  ( 0.0000000000000000000, 0.0000000000000000000, 1.000000000000000000 ) ) ;
#154 = CARTESIAN_POINT ( 'NONE',  ( 0.8750000000000000000, 0.0000000000000000000, 0.0000000000000000000 ) ) ;
#155 = STYLED_ITEM ( 'NONE', ( #217 ), #135 ) ;
#156 = VERTEX_POINT ( 'NONE', #65 ) ;
#157 = DIRECTION ( 'NONE',  ( 0.0000000000000000000, 0.0000000000000000000, -1.000000000000000000 ) ) ;
#158 = ORIENTED_EDGE ( 'NONE', *, *, #54, .T. ) ;
#159 = VECTOR ( 'NONE', #29, 39.37007874015748143 ) ;
#160 = CARTESIAN_POINT ( 'NONE',  ( 0.8750000000000000000, 0.0000000000000000000, 0.1870000000000000551 ) ) ;
#161 = AXIS2_PLACEMENT_3D ( 'NONE', #66, #16, #4 ) ;
#162 = DIRECTION ( 'NONE',  ( 0.0000000000000000000, 0.0000000000000000000, 1.000000000000000000 ) ) ;
#163 = COLOUR_RGB ( '',0.2980392156862745057, 0.2980392156862745057, 0.2980392156862745057 ) ;
#164 = CARTESIAN_POINT ( 'NONE',  ( 0.0000000000000000000, 0.0000000000000000000, 0.0000000000000000000 ) ) ;
#165 = PRODUCT_DEFINITION_FORMATION_WITH_SPECIFIED_SOURCE ( 'ANY', '', #216, .NOT_KNOWN. ) ;
#166 = LINE ( 'NONE', #136, #159 ) ;
#167 = CYLINDRICAL_SURFACE ( 'NONE', #93, 0.09800000000000000377 ) ;
#168 = AXIS2_PLACEMENT_3D ( 'NONE', #176, #191, #82 ) ;
#169 = FACE_BOUND ( 'NONE', #72, .T. ) ;
#170 = VECTOR ( 'NONE', #46, 39.37007874015748143 ) ;
#171 = ADVANCED_FACE ( 'NONE', ( #92 ), #167, .F. ) ;
#172 = EDGE_CURVE ( 'NONE', #198, #189, #130, .T. ) ;
#173 = DIRECTION ( 'NONE',  ( 1.000000000000000000, 0.0000000000000000000, 0.0000000000000000000 ) ) ;
#174 = FACE_OUTER_BOUND ( 'NONE', #110, .T. ) ;
#175 = VERTEX_POINT ( 'NONE', #73 ) ;
#176 = CARTESIAN_POINT ( 'NONE',  ( 0.8750000000000000000, 0.0000000000000000000, 0.0000000000000000000 ) ) ;
#177 = AXIS2_PLACEMENT_3D ( 'NONE', #94, #173, #97 ) ;
#178 = FACE_OUTER_BOUND ( 'NONE', #127, .T. ) ;
#179 = CARTESIAN_POINT ( 'NONE',  ( 0.8750000000000000000, 0.0000000000000000000, 0.0000000000000000000 ) ) ;
#180 = DIRECTION ( 'NONE',  ( 0.0000000000000000000, 0.0000000000000000000, -1.000000000000000000 ) ) ;
#181 = CARTESIAN_POINT ( 'NONE',  ( 0.8750000000000000000, 2.290089514405551281E-17, -0.1870000000000000551 ) ) ;
#182 = APPLICATION_PROTOCOL_DEFINITION ( 'draft international standard', 'automotive_design', 1998, #147 ) ;
#183 = UNCERTAINTY_MEASURE_WITH_UNIT (LENGTH_MEASURE( 1.000000000000000082E-05 ), #107, 'distance_accuracy_value', 'NONE');
#184 = CYLINDRICAL_SURFACE ( 'NONE', #210, 0.1870000000000000551 ) ;
#185 = CYLINDRICAL_SURFACE ( 'NONE', #168, 0.09800000000000000377 ) ;
#186 = EDGE_CURVE ( 'NONE', #105, #108, #74, .T. ) ;
#187 = ORIENTED_EDGE ( 'NONE', *, *, #218, .F. ) ;
#188 = ORIENTED_EDGE ( 'NONE', *, *, #186, .T. ) ;
#189 = VERTEX_POINT ( 'NONE', #89 ) ;
#190 = ADVANCED_FACE ( 'NONE', ( #32 ), #184, .T. ) ;
#191 = DIRECTION ( 'NONE',  ( -1.000000000000000000, -0.0000000000000000000, -0.0000000000000000000 ) ) ;
#192 = FACE_BOUND ( 'NONE', #57, .T. ) ;
#193 = DIRECTION ( 'NONE',  ( 1.000000000000000000, 0.0000000000000000000, 0.0000000000000000000 ) ) ;
#194 = ORIENTED_EDGE ( 'NONE', *, *, #54, .F. ) ;
#195 = ORIENTED_EDGE ( 'NONE', *, *, #59, .T. ) ;
#196 = STYLED_ITEM ( 'NONE', ( #62 ), #88 ) ;
#197 =( LENGTH_UNIT ( ) NAMED_UNIT ( * ) SI_UNIT ( $, .METRE. ) );
#198 = VERTEX_POINT ( 'NONE', #56 ) ;
#199 = SHAPE_DEFINITION_REPRESENTATION ( #123, #88 ) ;
#200 = DIRECTION ( 'NONE',  ( 0.0000000000000000000, 0.0000000000000000000, -1.000000000000000000 ) ) ;
#201 =( NAMED_UNIT ( * ) PLANE_ANGLE_UNIT ( ) SI_UNIT ( $, .RADIAN. ) );
#202 = EDGE_LOOP ( 'NONE', ( #75, #3, #194, #51 ) ) ;
#203 = DIRECTION ( 'NONE',  ( 0.0000000000000000000, 0.0000000000000000000, -1.000000000000000000 ) ) ;
#204 = CIRCLE ( 'NONE', #101, 0.1870000000000000551 ) ;
#205 = CARTESIAN_POINT ( 'NONE',  ( 0.8750000000000000000, 0.0000000000000000000, 0.0000000000000000000 ) ) ;
#206 = EDGE_CURVE ( 'NONE', #69, #108, #31, .T. ) ;
#207 = SURFACE_STYLE_USAGE ( .BOTH. , #15 ) ;
#208 = ORIENTED_EDGE ( 'NONE', *, *, #24, .F. ) ;
#209 = DIRECTION ( 'NONE',  ( 1.000000000000000000, 0.0000000000000000000, 0.0000000000000000000 ) ) ;
#210 = AXIS2_PLACEMENT_3D ( 'NONE', #154, #144, #19 ) ;
#211 =( LENGTH_UNIT ( ) NAMED_UNIT ( * ) SI_UNIT ( $, .METRE. ) );
#212 = COLOUR_RGB ( '',0.2980392156862745057, 0.2980392156862745057, 0.2980392156862745057 ) ;
#213 = APPLICATION_PROTOCOL_DEFINITION ( 'draft international standard', 'automotive_design', 1998, #86 ) ;
#214 = FILL_AREA_STYLE ('',( #102 ) ) ;
#215 =( NAMED_UNIT ( * ) SI_UNIT ( $, .STERADIAN. ) SOLID_ANGLE_UNIT ( ) );
#216 = PRODUCT ( 'WCP-0206 Rev1', 'WCP-0206 Rev1', '', ( #58 ) ) ;
#217 = PRESENTATION_STYLE_ASSIGNMENT (( #207 ) ) ;
#218 = EDGE_CURVE ( 'NONE', #108, #105, #116, .T. ) ;
#219 = UNCERTAINTY_MEASURE_WITH_UNIT (LENGTH_MEASURE( 1.000000000000000082E-05 ), #120, 'distance_accuracy_value', 'NONE');
#220 = VECTOR ( 'NONE', #128, 39.37007874015748143 ) ;
#221 = FILL_AREA_STYLE_COLOUR ( '', #212 ) ;
#222 = AXIS2_PLACEMENT_3D ( 'NONE', #138, #209, #223 ) ;
#223 = DIRECTION ( 'NONE',  ( 0.0000000000000000000, 0.0000000000000000000, -1.000000000000000000 ) ) ;
ENDSEC;
END-ISO-10303-21;
