ISO-10303-21;
HEADER;
FILE_DESCRIPTION (( 'STEP AP214' ),
    '1' );
FILE_NAME ('WCP-0205 Rev1.step',
    '2019-12-12T00:45:09',
    ( '' ),
    ( '' ),
    'SwSTEP 2.0',
    'SolidWorks 2018',
    '' );
FILE_SCHEMA (( 'AUTOMOTIVE_DESIGN' ));
ENDSEC;

DATA;
#1 = AXIS2_PLACEMENT_3D ( 'NONE', #159, #57, #195 ) ;
#2 = VERTEX_POINT ( 'NONE', #143 ) ;
#3 = CIRCLE ( 'NONE', #170, 0.1870000000000000551 ) ;
#4 = PLANE ( 'NONE',  #105 ) ;
#5 = VECTOR ( 'NONE', #160, 39.37007874015748143 ) ;
#6 = EDGE_LOOP ( 'NONE', ( #153, #120 ) ) ;
#7 = EDGE_CURVE ( 'NONE', #113, #92, #156, .T. ) ;
#8 = CARTESIAN_POINT ( 'NONE',  ( 0.7500000000000001110, 0.0000000000000000000, 0.0000000000000000000 ) ) ;
#9 = STYLED_ITEM ( 'NONE', ( #139 ), #15 ) ;
#10 = PRESENTATION_LAYER_ASSIGNMENT (  '', '', ( #104 ) ) ;
#11 = FACE_OUTER_BOUND ( 'NONE', #157, .T. ) ;
#12 = VERTEX_POINT ( 'NONE', #109 ) ;
#13 = CARTESIAN_POINT ( 'NONE',  ( 0.7500000000000001110, 1.200153863164405951E-17, -0.09800000000000000377 ) ) ;
#14 = DIRECTION ( 'NONE',  ( 0.0000000000000000000, 0.0000000000000000000, -1.000000000000000000 ) ) ;
#15 = ADVANCED_BREP_SHAPE_REPRESENTATION ( 'WCP-0205 Rev1', ( #202, #145 ), #220 ) ;
#16 = DIRECTION ( 'NONE',  ( -1.000000000000000000, -0.0000000000000000000, -0.0000000000000000000 ) ) ;
#17 = EDGE_CURVE ( 'NONE', #18, #113, #3, .T. ) ;
#18 = VERTEX_POINT ( 'NONE', #217 ) ;
#19 = EDGE_CURVE ( 'NONE', #2, #141, #41, .T. ) ;
#20 = CIRCLE ( 'NONE', #77, 0.1870000000000000551 ) ;
#21 =( LENGTH_UNIT ( ) NAMED_UNIT ( * ) SI_UNIT ( $, .METRE. ) );
#22 = FILL_AREA_STYLE ('',( #61 ) ) ;
#23 = DIRECTION ( 'NONE',  ( -1.000000000000000000, -0.0000000000000000000, -0.0000000000000000000 ) ) ;
#24 = AXIS2_PLACEMENT_3D ( 'NONE', #182, #76, #219 ) ;
#25 = CARTESIAN_POINT ( 'NONE',  ( 0.7500000000000001110, 1.200153863164405951E-17, -0.09800000000000000377 ) ) ;
#26 = APPLICATION_PROTOCOL_DEFINITION ( 'draft international standard', 'automotive_design', 1998, #43 ) ;
#27 = CARTESIAN_POINT ( 'NONE',  ( 0.7500000000000001110, 0.0000000000000000000, 0.09800000000000000377 ) ) ;
#28 = CARTESIAN_POINT ( 'NONE',  ( 0.7500000000000001110, 0.0000000000000000000, 0.0000000000000000000 ) ) ;
#29 = ORIENTED_EDGE ( 'NONE', *, *, #19, .F. ) ;
#30 = ORIENTED_EDGE ( 'NONE', *, *, #17, .F. ) ;
#31 = CARTESIAN_POINT ( 'NONE',  ( -0.7500000000000001110, 0.0000000000000000000, 0.09800000000000000377 ) ) ;
#32 = PRESENTATION_LAYER_ASSIGNMENT (  '', '', ( #9 ) ) ;
#33 = LINE ( 'NONE', #13, #223 ) ;
#34 = EDGE_CURVE ( 'NONE', #2, #51, #166, .T. ) ;
#35 = COLOUR_RGB ( '',0.2980392156862745057, 0.2980392156862745057, 0.2980392156862745057 ) ;
#36 = AXIS2_PLACEMENT_3D ( 'NONE', #50, #69, #137 ) ;
#37 = CARTESIAN_POINT ( 'NONE',  ( 0.7500000000000001110, 0.0000000000000000000, 0.0000000000000000000 ) ) ;
#38 = FACE_BOUND ( 'NONE', #138, .T. ) ;
#39 = PRODUCT_RELATED_PRODUCT_CATEGORY ( 'part', '', ( #216 ) ) ;
#40 =( CONVERSION_BASED_UNIT ( 'INCH', #55 ) LENGTH_UNIT ( ) NAMED_UNIT ( #164 ) );
#41 = LINE ( 'NONE', #27, #131 ) ;
#42 = CARTESIAN_POINT ( 'NONE',  ( 0.0000000000000000000, 0.0000000000000000000, 0.0000000000000000000 ) ) ;
#43 = APPLICATION_CONTEXT ( 'automotive_design' ) ;
#44 = AXIS2_PLACEMENT_3D ( 'NONE', #206, #96, #78 ) ;
#45 = CYLINDRICAL_SURFACE ( 'NONE', #1, 0.1870000000000000551 ) ;
#46 = SURFACE_STYLE_FILL_AREA ( #134 ) ;
#47 =( LENGTH_UNIT ( ) NAMED_UNIT ( * ) SI_UNIT ( $, .METRE. ) );
#48 = EDGE_LOOP ( 'NONE', ( #63, #192 ) ) ;
#49 = SHAPE_DEFINITION_REPRESENTATION ( #155, #15 ) ;
#50 = CARTESIAN_POINT ( 'NONE',  ( -0.7500000000000001110, 0.0000000000000000000, 0.0000000000000000000 ) ) ;
#51 = VERTEX_POINT ( 'NONE', #25 ) ;
#52 = DIRECTION ( 'NONE',  ( 1.000000000000000000, 0.0000000000000000000, 0.0000000000000000000 ) ) ;
#53 = FILL_AREA_STYLE_COLOUR ( '', #130 ) ;
#54 = MECHANICAL_DESIGN_GEOMETRIC_PRESENTATION_REPRESENTATION (  '', ( #9 ), #98 ) ;
#55 = LENGTH_MEASURE_WITH_UNIT ( LENGTH_MEASURE( 0.02539999999999999897 ), #21 );
#56 = DIRECTION ( 'NONE',  ( 0.0000000000000000000, 0.0000000000000000000, 1.000000000000000000 ) ) ;
#57 = DIRECTION ( 'NONE',  ( -1.000000000000000000, -0.0000000000000000000, -0.0000000000000000000 ) ) ;
#58 = UNCERTAINTY_MEASURE_WITH_UNIT (LENGTH_MEASURE( 1.000000000000000082E-05 ), #40, 'distance_accuracy_value', 'NONE');
#59 = AXIS2_PLACEMENT_3D ( 'NONE', #149, #103, #14 ) ;
#60 = CARTESIAN_POINT ( 'NONE',  ( 0.7500000000000001110, 0.0000000000000000000, 0.1870000000000000551 ) ) ;
#61 = FILL_AREA_STYLE_COLOUR ( '', #35 ) ;
#62 = PRODUCT_DEFINITION ( 'UNKNOWN', '', #86, #215 ) ;
#63 = ORIENTED_EDGE ( 'NONE', *, *, #90, .F. ) ;
#64 = DIMENSIONAL_EXPONENTS ( 1.000000000000000000, 0.0000000000000000000, 0.0000000000000000000, 0.0000000000000000000, 0.0000000000000000000, 0.0000000000000000000, 0.0000000000000000000 ) ;
#65 =( CONVERSION_BASED_UNIT ( 'INCH', #100 ) LENGTH_UNIT ( ) NAMED_UNIT ( #64 ) );
#66 = DIRECTION ( 'NONE',  ( 0.0000000000000000000, 0.0000000000000000000, -1.000000000000000000 ) ) ;
#67 = LENGTH_MEASURE_WITH_UNIT ( LENGTH_MEASURE( 0.02539999999999999897 ), #199 );
#68 = AXIS2_PLACEMENT_3D ( 'NONE', #118, #185, #133 ) ;
#69 = DIRECTION ( 'NONE',  ( 1.000000000000000000, 0.0000000000000000000, 0.0000000000000000000 ) ) ;
#70 = ORIENTED_EDGE ( 'NONE', *, *, #136, .T. ) ;
#71 = ORIENTED_EDGE ( 'NONE', *, *, #7, .T. ) ;
#72 =( CONVERSION_BASED_UNIT ( 'INCH', #67 ) LENGTH_UNIT ( ) NAMED_UNIT ( #114 ) );
#73 = SURFACE_STYLE_FILL_AREA ( #22 ) ;
#74 = ORIENTED_EDGE ( 'NONE', *, *, #34, .T. ) ;
#75 = DIRECTION ( 'NONE',  ( 0.0000000000000000000, 0.0000000000000000000, -1.000000000000000000 ) ) ;
#76 = DIRECTION ( 'NONE',  ( -1.000000000000000000, -0.0000000000000000000, -0.0000000000000000000 ) ) ;
#77 = AXIS2_PLACEMENT_3D ( 'NONE', #102, #52, #154 ) ;
#78 = DIRECTION ( 'NONE',  ( 0.0000000000000000000, 0.0000000000000000000, 1.000000000000000000 ) ) ;
#79 = CYLINDRICAL_SURFACE ( 'NONE', #24, 0.09800000000000000377 ) ;
#80 = VERTEX_POINT ( 'NONE', #212 ) ;
#81 =( GEOMETRIC_REPRESENTATION_CONTEXT ( 3 ) GLOBAL_UNCERTAINTY_ASSIGNED_CONTEXT ( ( #177 ) ) GLOBAL_UNIT_ASSIGNED_CONTEXT ( ( #65, #165, #82 ) ) REPRESENTATION_CONTEXT ( 'NONE', 'WORKASPACE' ) );
#82 =( NAMED_UNIT ( * ) SI_UNIT ( $, .STERADIAN. ) SOLID_ANGLE_UNIT ( ) );
#83 = DIRECTION ( 'NONE',  ( 0.0000000000000000000, 0.0000000000000000000, -1.000000000000000000 ) ) ;
#84 = FACE_OUTER_BOUND ( 'NONE', #48, .T. ) ;
#85 =( NAMED_UNIT ( * ) PLANE_ANGLE_UNIT ( ) SI_UNIT ( $, .RADIAN. ) );
#86 = PRODUCT_DEFINITION_FORMATION_WITH_SPECIFIED_SOURCE ( 'ANY', '', #216, .NOT_KNOWN. ) ;
#87 = EDGE_LOOP ( 'NONE', ( #147, #205, #126, #200 ) ) ;
#88 = APPLICATION_CONTEXT ( 'automotive_design' ) ;
#89 = EDGE_LOOP ( 'NONE', ( #186, #71, #207, #211 ) ) ;
#90 = EDGE_CURVE ( 'NONE', #12, #92, #191, .T. ) ;
#91 = PRODUCT_CONTEXT ( 'NONE', #43, 'mechanical' ) ;
#92 = VERTEX_POINT ( 'NONE', #123 ) ;
#93 = ORIENTED_EDGE ( 'NONE', *, *, #7, .F. ) ;
#94 = EDGE_CURVE ( 'NONE', #18, #12, #132, .T. ) ;
#95 = ADVANCED_FACE ( 'NONE', ( #121 ), #45, .T. ) ;
#96 = DIRECTION ( 'NONE',  ( -1.000000000000000000, -0.0000000000000000000, -0.0000000000000000000 ) ) ;
#97 = ADVANCED_FACE ( 'NONE', ( #172 ), #79, .F. ) ;
#98 =( GEOMETRIC_REPRESENTATION_CONTEXT ( 3 ) GLOBAL_UNCERTAINTY_ASSIGNED_CONTEXT ( ( #163 ) ) GLOBAL_UNIT_ASSIGNED_CONTEXT ( ( #72, #197, #106 ) ) REPRESENTATION_CONTEXT ( 'NONE', 'WORKASPACE' ) );
#99 = ORIENTED_EDGE ( 'NONE', *, *, #161, .T. ) ;
#100 = LENGTH_MEASURE_WITH_UNIT ( LENGTH_MEASURE( 0.02539999999999999897 ), #47 );
#101 = DIRECTION ( 'NONE',  ( -1.000000000000000000, -0.0000000000000000000, -0.0000000000000000000 ) ) ;
#102 = CARTESIAN_POINT ( 'NONE',  ( 0.7500000000000001110, 0.0000000000000000000, 0.0000000000000000000 ) ) ;
#103 = DIRECTION ( 'NONE',  ( 1.000000000000000000, 0.0000000000000000000, 0.0000000000000000000 ) ) ;
#104 = STYLED_ITEM ( 'NONE', ( #201 ), #202 ) ;
#105 = AXIS2_PLACEMENT_3D ( 'NONE', #168, #208, #66 ) ;
#106 =( NAMED_UNIT ( * ) SI_UNIT ( $, .STERADIAN. ) SOLID_ANGLE_UNIT ( ) );
#107 = CARTESIAN_POINT ( 'NONE',  ( -0.7500000000000001110, 0.0000000000000000000, 0.0000000000000000000 ) ) ;
#108 = ORIENTED_EDGE ( 'NONE', *, *, #94, .T. ) ;
#109 = CARTESIAN_POINT ( 'NONE',  ( -0.7500000000000001110, 0.0000000000000000000, 0.1870000000000000551 ) ) ;
#110 = EDGE_CURVE ( 'NONE', #51, #2, #210, .T. ) ;
#111 = CARTESIAN_POINT ( 'NONE',  ( 0.7500000000000001110, 2.290089514405550357E-17, -0.1870000000000000551 ) ) ;
#112 = FACE_OUTER_BOUND ( 'NONE', #6, .T. ) ;
#113 = VERTEX_POINT ( 'NONE', #111 ) ;
#114 = DIMENSIONAL_EXPONENTS ( 1.000000000000000000, 0.0000000000000000000, 0.0000000000000000000, 0.0000000000000000000, 0.0000000000000000000, 0.0000000000000000000, 0.0000000000000000000 ) ;
#115 = PLANE ( 'NONE',  #59 ) ;
#116 = CIRCLE ( 'NONE', #198, 0.1870000000000000551 ) ;
#117 = DIRECTION ( 'NONE',  ( 0.0000000000000000000, 0.0000000000000000000, -1.000000000000000000 ) ) ;
#118 = CARTESIAN_POINT ( 'NONE',  ( -0.7500000000000001110, 0.0000000000000000000, 0.0000000000000000000 ) ) ;
#119 = DIRECTION ( 'NONE',  ( 1.000000000000000000, 0.0000000000000000000, 0.0000000000000000000 ) ) ;
#120 = ORIENTED_EDGE ( 'NONE', *, *, #173, .T. ) ;
#121 = FACE_OUTER_BOUND ( 'NONE', #89, .T. ) ;
#122 = CYLINDRICAL_SURFACE ( 'NONE', #44, 0.09800000000000000377 ) ;
#123 = CARTESIAN_POINT ( 'NONE',  ( -0.7500000000000001110, 2.290089514405550357E-17, -0.1870000000000000551 ) ) ;
#124 = DIRECTION ( 'NONE',  ( -1.000000000000000000, -0.0000000000000000000, -0.0000000000000000000 ) ) ;
#125 = DIRECTION ( 'NONE',  ( 1.000000000000000000, 0.0000000000000000000, 0.0000000000000000000 ) ) ;
#126 = ORIENTED_EDGE ( 'NONE', *, *, #19, .T. ) ;
#127 = CIRCLE ( 'NONE', #68, 0.09800000000000000377 ) ;
#128 = AXIS2_PLACEMENT_3D ( 'NONE', #8, #144, #196 ) ;
#129 = CARTESIAN_POINT ( 'NONE',  ( -0.7500000000000001110, 0.0000000000000000000, 0.0000000000000000000 ) ) ;
#130 = COLOUR_RGB ( '',0.2980392156862745057, 0.2980392156862745057, 0.2980392156862745057 ) ;
#131 = VECTOR ( 'NONE', #124, 39.37007874015748143 ) ;
#132 = LINE ( 'NONE', #60, #194 ) ;
#133 = DIRECTION ( 'NONE',  ( 0.0000000000000000000, 0.0000000000000000000, -1.000000000000000000 ) ) ;
#134 = FILL_AREA_STYLE ('',( #53 ) ) ;
#135 = CARTESIAN_POINT ( 'NONE',  ( 0.7500000000000001110, 0.0000000000000000000, 0.0000000000000000000 ) ) ;
#136 = EDGE_CURVE ( 'NONE', #141, #80, #221, .T. ) ;
#137 = DIRECTION ( 'NONE',  ( 0.0000000000000000000, 0.0000000000000000000, -1.000000000000000000 ) ) ;
#138 = EDGE_LOOP ( 'NONE', ( #70, #193 ) ) ;
#139 = PRESENTATION_STYLE_ASSIGNMENT (( #213 ) ) ;
#140 = SURFACE_SIDE_STYLE ('',( #73 ) ) ;
#141 = VERTEX_POINT ( 'NONE', #31 ) ;
#142 = EDGE_LOOP ( 'NONE', ( #74, #99, #148, #29 ) ) ;
#143 = CARTESIAN_POINT ( 'NONE',  ( 0.7500000000000001110, 0.0000000000000000000, 0.09800000000000000377 ) ) ;
#144 = DIRECTION ( 'NONE',  ( 1.000000000000000000, 0.0000000000000000000, 0.0000000000000000000 ) ) ;
#145 = AXIS2_PLACEMENT_3D ( 'NONE', #42, #56, #175 ) ;
#146 = FACE_OUTER_BOUND ( 'NONE', #87, .T. ) ;
#147 = ORIENTED_EDGE ( 'NONE', *, *, #161, .F. ) ;
#148 = ORIENTED_EDGE ( 'NONE', *, *, #136, .F. ) ;
#149 = CARTESIAN_POINT ( 'NONE',  ( 0.7500000000000001110, 0.0000000000000000000, 0.0000000000000000000 ) ) ;
#150 = ADVANCED_FACE ( 'NONE', ( #11 ), #181, .T. ) ;
#151 = ORIENTED_EDGE ( 'NONE', *, *, #34, .F. ) ;
#152 = ADVANCED_FACE ( 'NONE', ( #112, #167 ), #115, .T. ) ;
#153 = ORIENTED_EDGE ( 'NONE', *, *, #17, .T. ) ;
#154 = DIRECTION ( 'NONE',  ( 0.0000000000000000000, 0.0000000000000000000, -1.000000000000000000 ) ) ;
#155 = PRODUCT_DEFINITION_SHAPE ( 'NONE', 'NONE',  #62 ) ;
#156 = LINE ( 'NONE', #179, #5 ) ;
#157 = EDGE_LOOP ( 'NONE', ( #93, #30, #108, #158 ) ) ;
#158 = ORIENTED_EDGE ( 'NONE', *, *, #90, .T. ) ;
#159 = CARTESIAN_POINT ( 'NONE',  ( 0.7500000000000001110, 0.0000000000000000000, 0.0000000000000000000 ) ) ;
#160 = DIRECTION ( 'NONE',  ( -1.000000000000000000, -0.0000000000000000000, -0.0000000000000000000 ) ) ;
#161 = EDGE_CURVE ( 'NONE', #51, #80, #33, .T. ) ;
#162 = DIRECTION ( 'NONE',  ( 1.000000000000000000, 0.0000000000000000000, 0.0000000000000000000 ) ) ;
#163 = UNCERTAINTY_MEASURE_WITH_UNIT (LENGTH_MEASURE( 1.000000000000000082E-05 ), #72, 'distance_accuracy_value', 'NONE');
#164 = DIMENSIONAL_EXPONENTS ( 1.000000000000000000, 0.0000000000000000000, 0.0000000000000000000, 0.0000000000000000000, 0.0000000000000000000, 0.0000000000000000000, 0.0000000000000000000 ) ;
#165 =( NAMED_UNIT ( * ) PLANE_ANGLE_UNIT ( ) SI_UNIT ( $, .RADIAN. ) );
#166 = CIRCLE ( 'NONE', #128, 0.09800000000000000377 ) ;
#167 = FACE_BOUND ( 'NONE', #180, .T. ) ;
#168 = CARTESIAN_POINT ( 'NONE',  ( -0.7500000000000001110, 0.0000000000000000000, 0.0000000000000000000 ) ) ;
#169 = CLOSED_SHELL ( 'NONE', ( #97, #95, #152, #183, #150, #222 ) ) ;
#170 = AXIS2_PLACEMENT_3D ( 'NONE', #28, #125, #176 ) ;
#171 = ORIENTED_EDGE ( 'NONE', *, *, #110, .F. ) ;
#172 = FACE_OUTER_BOUND ( 'NONE', #142, .T. ) ;
#173 = EDGE_CURVE ( 'NONE', #113, #18, #20, .T. ) ;
#174 =( NAMED_UNIT ( * ) SI_UNIT ( $, .STERADIAN. ) SOLID_ANGLE_UNIT ( ) );
#175 = DIRECTION ( 'NONE',  ( 1.000000000000000000, 0.0000000000000000000, 0.0000000000000000000 ) ) ;
#176 = DIRECTION ( 'NONE',  ( 0.0000000000000000000, 0.0000000000000000000, -1.000000000000000000 ) ) ;
#177 = UNCERTAINTY_MEASURE_WITH_UNIT (LENGTH_MEASURE( 1.000000000000000082E-05 ), #65, 'distance_accuracy_value', 'NONE');
#178 = EDGE_CURVE ( 'NONE', #80, #141, #127, .T. ) ;
#179 = CARTESIAN_POINT ( 'NONE',  ( 0.7500000000000001110, 2.290089514405550357E-17, -0.1870000000000000551 ) ) ;
#180 = EDGE_LOOP ( 'NONE', ( #151, #171 ) ) ;
#181 = CYLINDRICAL_SURFACE ( 'NONE', #218, 0.1870000000000000551 ) ;
#182 = CARTESIAN_POINT ( 'NONE',  ( 0.7500000000000001110, 0.0000000000000000000, 0.0000000000000000000 ) ) ;
#183 = ADVANCED_FACE ( 'NONE', ( #84, #38 ), #4, .F. ) ;
#184 = AXIS2_PLACEMENT_3D ( 'NONE', #135, #119, #117 ) ;
#185 = DIRECTION ( 'NONE',  ( 1.000000000000000000, 0.0000000000000000000, 0.0000000000000000000 ) ) ;
#186 = ORIENTED_EDGE ( 'NONE', *, *, #173, .F. ) ;
#187 = DIRECTION ( 'NONE',  ( 1.000000000000000000, 0.0000000000000000000, 0.0000000000000000000 ) ) ;
#188 = EDGE_CURVE ( 'NONE', #92, #12, #116, .T. ) ;
#189 = SURFACE_STYLE_USAGE ( .BOTH. , #203 ) ;
#190 = DIRECTION ( 'NONE',  ( 0.0000000000000000000, 0.0000000000000000000, 1.000000000000000000 ) ) ;
#191 = CIRCLE ( 'NONE', #204, 0.1870000000000000551 ) ;
#192 = ORIENTED_EDGE ( 'NONE', *, *, #188, .F. ) ;
#193 = ORIENTED_EDGE ( 'NONE', *, *, #178, .T. ) ;
#194 = VECTOR ( 'NONE', #23, 39.37007874015748143 ) ;
#195 = DIRECTION ( 'NONE',  ( 0.0000000000000000000, 0.0000000000000000000, 1.000000000000000000 ) ) ;
#196 = DIRECTION ( 'NONE',  ( 0.0000000000000000000, 0.0000000000000000000, -1.000000000000000000 ) ) ;
#197 =( NAMED_UNIT ( * ) PLANE_ANGLE_UNIT ( ) SI_UNIT ( $, .RADIAN. ) );
#198 = AXIS2_PLACEMENT_3D ( 'NONE', #129, #187, #83 ) ;
#199 =( LENGTH_UNIT ( ) NAMED_UNIT ( * ) SI_UNIT ( $, .METRE. ) );
#200 = ORIENTED_EDGE ( 'NONE', *, *, #178, .F. ) ;
#201 = PRESENTATION_STYLE_ASSIGNMENT (( #189 ) ) ;
#202 = MANIFOLD_SOLID_BREP ( 'Boss-Extrude1', #169 ) ;
#203 = SURFACE_SIDE_STYLE ('',( #46 ) ) ;
#204 = AXIS2_PLACEMENT_3D ( 'NONE', #107, #162, #75 ) ;
#205 = ORIENTED_EDGE ( 'NONE', *, *, #110, .T. ) ;
#206 = CARTESIAN_POINT ( 'NONE',  ( 0.7500000000000001110, 0.0000000000000000000, 0.0000000000000000000 ) ) ;
#207 = ORIENTED_EDGE ( 'NONE', *, *, #188, .T. ) ;
#208 = DIRECTION ( 'NONE',  ( 1.000000000000000000, 0.0000000000000000000, 0.0000000000000000000 ) ) ;
#209 = MECHANICAL_DESIGN_GEOMETRIC_PRESENTATION_REPRESENTATION (  '', ( #104 ), #81 ) ;
#210 = CIRCLE ( 'NONE', #184, 0.09800000000000000377 ) ;
#211 = ORIENTED_EDGE ( 'NONE', *, *, #94, .F. ) ;
#212 = CARTESIAN_POINT ( 'NONE',  ( -0.7500000000000001110, 1.200153863164405951E-17, -0.09800000000000000377 ) ) ;
#213 = SURFACE_STYLE_USAGE ( .BOTH. , #140 ) ;
#214 = APPLICATION_PROTOCOL_DEFINITION ( 'draft international standard', 'automotive_design', 1998, #88 ) ;
#215 = PRODUCT_DEFINITION_CONTEXT ( 'detailed design', #88, 'design' ) ;
#216 = PRODUCT ( 'WCP-0205 Rev1', 'WCP-0205 Rev1', '', ( #91 ) ) ;
#217 = CARTESIAN_POINT ( 'NONE',  ( 0.7500000000000001110, 0.0000000000000000000, 0.1870000000000000551 ) ) ;
#218 = AXIS2_PLACEMENT_3D ( 'NONE', #37, #16, #190 ) ;
#219 = DIRECTION ( 'NONE',  ( 0.0000000000000000000, 0.0000000000000000000, 1.000000000000000000 ) ) ;
#220 =( GEOMETRIC_REPRESENTATION_CONTEXT ( 3 ) GLOBAL_UNCERTAINTY_ASSIGNED_CONTEXT ( ( #58 ) ) GLOBAL_UNIT_ASSIGNED_CONTEXT ( ( #40, #85, #174 ) ) REPRESENTATION_CONTEXT ( 'NONE', 'WORKASPACE' ) );
#221 = CIRCLE ( 'NONE', #36, 0.09800000000000000377 ) ;
#222 = ADVANCED_FACE ( 'NONE', ( #146 ), #122, .F. ) ;
#223 = VECTOR ( 'NONE', #101, 39.37007874015748143 ) ;
ENDSEC;
END-ISO-10303-21;
