ISO-10303-21;
HEADER;
FILE_DESCRIPTION (( 'STEP AP214' ),
    '1' );
FILE_NAME ('WCP-0204 Rev1.step',
    '2019-12-12T00:45:05',
    ( '' ),
    ( '' ),
    'SwSTEP 2.0',
    'SolidWorks 2018',
    '' );
FILE_SCHEMA (( 'AUTOMOTIVE_DESIGN' ));
ENDSEC;

DATA;
#1 = AXIS2_PLACEMENT_3D ( 'NONE', #86, #203, #25 ) ;
#2 = EDGE_CURVE ( 'NONE', #170, #152, #49, .T. ) ;
#3 = CARTESIAN_POINT ( 'NONE',  ( 0.5000000000000000000, 0.0000000000000000000, 0.0000000000000000000 ) ) ;
#4 = DIRECTION ( 'NONE',  ( -1.000000000000000000, -0.0000000000000000000, -0.0000000000000000000 ) ) ;
#5 = CARTESIAN_POINT ( 'NONE',  ( 0.5000000000000000000, 0.0000000000000000000, 0.0000000000000000000 ) ) ;
#6 = CARTESIAN_POINT ( 'NONE',  ( 0.5000000000000000000, 0.0000000000000000000, 0.1870000000000000551 ) ) ;
#7 = CARTESIAN_POINT ( 'NONE',  ( 0.5000000000000000000, 0.0000000000000000000, 0.0000000000000000000 ) ) ;
#8 = MANIFOLD_SOLID_BREP ( 'Boss-Extrude1', #88 ) ;
#9 = ORIENTED_EDGE ( 'NONE', *, *, #91, .T. ) ;
#10 = SURFACE_SIDE_STYLE ('',( #186 ) ) ;
#11 = CARTESIAN_POINT ( 'NONE',  ( -0.5000000000000000000, 2.290089514405551281E-17, -0.1870000000000000551 ) ) ;
#12 = ORIENTED_EDGE ( 'NONE', *, *, #143, .T. ) ;
#13 = AXIS2_PLACEMENT_3D ( 'NONE', #220, #141, #53 ) ;
#14 = VERTEX_POINT ( 'NONE', #187 ) ;
#15 = CYLINDRICAL_SURFACE ( 'NONE', #57, 0.09800000000000000377 ) ;
#16 = AXIS2_PLACEMENT_3D ( 'NONE', #216, #66, #201 ) ;
#17 = ORIENTED_EDGE ( 'NONE', *, *, #91, .F. ) ;
#18 = MECHANICAL_DESIGN_GEOMETRIC_PRESENTATION_REPRESENTATION (  '', ( #197 ), #78 ) ;
#19 = ORIENTED_EDGE ( 'NONE', *, *, #2, .T. ) ;
#20 = FACE_BOUND ( 'NONE', #32, .T. ) ;
#21 = CARTESIAN_POINT ( 'NONE',  ( 0.5000000000000000000, 2.290089514405551281E-17, -0.1870000000000000551 ) ) ;
#22 = PRODUCT_DEFINITION_CONTEXT ( 'detailed design', #56, 'design' ) ;
#23 = EDGE_LOOP ( 'NONE', ( #82, #161, #193, #210 ) ) ;
#24 = EDGE_CURVE ( 'NONE', #100, #165, #199, .T. ) ;
#25 = DIRECTION ( 'NONE',  ( 0.0000000000000000000, 0.0000000000000000000, -1.000000000000000000 ) ) ;
#26 = DIRECTION ( 'NONE',  ( 0.0000000000000000000, 0.0000000000000000000, 1.000000000000000000 ) ) ;
#27 = ORIENTED_EDGE ( 'NONE', *, *, #206, .F. ) ;
#28 = DIRECTION ( 'NONE',  ( 0.0000000000000000000, 0.0000000000000000000, -1.000000000000000000 ) ) ;
#29 = EDGE_LOOP ( 'NONE', ( #61, #93, #12, #198 ) ) ;
#30 = CARTESIAN_POINT ( 'NONE',  ( 0.5000000000000000000, 0.0000000000000000000, 0.0000000000000000000 ) ) ;
#31 = CARTESIAN_POINT ( 'NONE',  ( 0.5000000000000000000, 0.0000000000000000000, 0.0000000000000000000 ) ) ;
#32 = EDGE_LOOP ( 'NONE', ( #196, #200 ) ) ;
#33 = AXIS2_PLACEMENT_3D ( 'NONE', #65, #84, #153 ) ;
#34 = DIRECTION ( 'NONE',  ( -1.000000000000000000, -0.0000000000000000000, -0.0000000000000000000 ) ) ;
#35 = VECTOR ( 'NONE', #175, 39.37007874015748143 ) ;
#36 = ADVANCED_FACE ( 'NONE', ( #46, #20 ), #103, .T. ) ;
#37 = FACE_BOUND ( 'NONE', #150, .T. ) ;
#38 = UNCERTAINTY_MEASURE_WITH_UNIT (LENGTH_MEASURE( 1.000000000000000082E-05 ), #221, 'distance_accuracy_value', 'NONE');
#39 = PRODUCT_DEFINITION_SHAPE ( 'NONE', 'NONE',  #85 ) ;
#40 = AXIS2_PLACEMENT_3D ( 'NONE', #5, #70, #71 ) ;
#41 = COLOUR_RGB ( '',0.2980392156862745057, 0.2980392156862745057, 0.2980392156862745057 ) ;
#42 = PRESENTATION_STYLE_ASSIGNMENT (( #177 ) ) ;
#43 = CARTESIAN_POINT ( 'NONE',  ( 0.5000000000000000000, 0.0000000000000000000, 0.0000000000000000000 ) ) ;
#44 = CARTESIAN_POINT ( 'NONE',  ( 0.5000000000000000000, 1.200153863164406105E-17, -0.09800000000000000377 ) ) ;
#45 = DIRECTION ( 'NONE',  ( -1.000000000000000000, -0.0000000000000000000, -0.0000000000000000000 ) ) ;
#46 = FACE_OUTER_BOUND ( 'NONE', #67, .T. ) ;
#47 = DIRECTION ( 'NONE',  ( 0.0000000000000000000, 0.0000000000000000000, -1.000000000000000000 ) ) ;
#48 =( CONVERSION_BASED_UNIT ( 'INCH', #122 ) LENGTH_UNIT ( ) NAMED_UNIT ( #54 ) );
#49 = LINE ( 'NONE', #6, #154 ) ;
#50 = EDGE_CURVE ( 'NONE', #79, #14, #184, .T. ) ;
#51 = CARTESIAN_POINT ( 'NONE',  ( -0.5000000000000000000, 0.0000000000000000000, 0.0000000000000000000 ) ) ;
#52 = LINE ( 'NONE', #44, #63 ) ;
#53 = DIRECTION ( 'NONE',  ( 0.0000000000000000000, 0.0000000000000000000, -1.000000000000000000 ) ) ;
#54 = DIMENSIONAL_EXPONENTS ( 1.000000000000000000, 0.0000000000000000000, 0.0000000000000000000, 0.0000000000000000000, 0.0000000000000000000, 0.0000000000000000000, 0.0000000000000000000 ) ;
#55 = DIRECTION ( 'NONE',  ( 1.000000000000000000, 0.0000000000000000000, 0.0000000000000000000 ) ) ;
#56 = APPLICATION_CONTEXT ( 'automotive_design' ) ;
#57 = AXIS2_PLACEMENT_3D ( 'NONE', #30, #34, #156 ) ;
#58 = ADVANCED_FACE ( 'NONE', ( #149 ), #133, .T. ) ;
#59 = ORIENTED_EDGE ( 'NONE', *, *, #174, .T. ) ;
#60 = EDGE_CURVE ( 'NONE', #218, #79, #164, .T. ) ;
#61 = ORIENTED_EDGE ( 'NONE', *, *, #69, .F. ) ;
#62 = PRODUCT_RELATED_PRODUCT_CATEGORY ( 'part', '', ( #119 ) ) ;
#63 = VECTOR ( 'NONE', #68, 39.37007874015748143 ) ;
#64 = EDGE_LOOP ( 'NONE', ( #17, #121 ) ) ;
#65 = CARTESIAN_POINT ( 'NONE',  ( -0.5000000000000000000, 0.0000000000000000000, 0.0000000000000000000 ) ) ;
#66 = DIRECTION ( 'NONE',  ( 1.000000000000000000, 0.0000000000000000000, 0.0000000000000000000 ) ) ;
#67 = EDGE_LOOP ( 'NONE', ( #169, #159 ) ) ;
#68 = DIRECTION ( 'NONE',  ( -1.000000000000000000, -0.0000000000000000000, -0.0000000000000000000 ) ) ;
#69 = EDGE_CURVE ( 'NONE', #100, #170, #212, .T. ) ;
#70 = DIRECTION ( 'NONE',  ( 1.000000000000000000, 0.0000000000000000000, 0.0000000000000000000 ) ) ;
#71 = DIRECTION ( 'NONE',  ( 0.0000000000000000000, 0.0000000000000000000, -1.000000000000000000 ) ) ;
#72 = CYLINDRICAL_SURFACE ( 'NONE', #147, 0.1870000000000000551 ) ;
#73 = DIRECTION ( 'NONE',  ( 0.0000000000000000000, 0.0000000000000000000, -1.000000000000000000 ) ) ;
#74 = PLANE ( 'NONE',  #136 ) ;
#75 = DIRECTION ( 'NONE',  ( 0.0000000000000000000, 0.0000000000000000000, -1.000000000000000000 ) ) ;
#76 = PRESENTATION_LAYER_ASSIGNMENT (  '', '', ( #197 ) ) ;
#77 =( LENGTH_UNIT ( ) NAMED_UNIT ( * ) SI_UNIT ( $, .METRE. ) );
#78 =( GEOMETRIC_REPRESENTATION_CONTEXT ( 3 ) GLOBAL_UNCERTAINTY_ASSIGNED_CONTEXT ( ( #171 ) ) GLOBAL_UNIT_ASSIGNED_CONTEXT ( ( #48, #173, #87 ) ) REPRESENTATION_CONTEXT ( 'NONE', 'WORKASPACE' ) );
#79 = VERTEX_POINT ( 'NONE', #135 ) ;
#80 = SHAPE_DEFINITION_REPRESENTATION ( #39, #166 ) ;
#81 = FACE_OUTER_BOUND ( 'NONE', #64, .T. ) ;
#82 = ORIENTED_EDGE ( 'NONE', *, *, #205, .T. ) ;
#83 = CYLINDRICAL_SURFACE ( 'NONE', #130, 0.09800000000000000377 ) ;
#84 = DIRECTION ( 'NONE',  ( 1.000000000000000000, 0.0000000000000000000, 0.0000000000000000000 ) ) ;
#85 = PRODUCT_DEFINITION ( 'UNKNOWN', '', #114, #22 ) ;
#86 = CARTESIAN_POINT ( 'NONE',  ( 0.5000000000000000000, 0.0000000000000000000, 0.0000000000000000000 ) ) ;
#87 =( NAMED_UNIT ( * ) SI_UNIT ( $, .STERADIAN. ) SOLID_ANGLE_UNIT ( ) );
#88 = CLOSED_SHELL ( 'NONE', ( #192, #144, #36, #194, #58, #140 ) ) ;
#89 = CIRCLE ( 'NONE', #1, 0.09800000000000000377 ) ;
#90 = APPLICATION_PROTOCOL_DEFINITION ( 'draft international standard', 'automotive_design', 1998, #56 ) ;
#91 = EDGE_CURVE ( 'NONE', #152, #165, #117, .T. ) ;
#92 = EDGE_LOOP ( 'NONE', ( #163, #27, #19, #9 ) ) ;
#93 = ORIENTED_EDGE ( 'NONE', *, *, #24, .T. ) ;
#94 = CARTESIAN_POINT ( 'NONE',  ( -0.5000000000000000000, 0.0000000000000000000, 0.1870000000000000551 ) ) ;
#95 = CARTESIAN_POINT ( 'NONE',  ( 0.5000000000000000000, 1.200153863164406105E-17, -0.09800000000000000377 ) ) ;
#96 = CARTESIAN_POINT ( 'NONE',  ( 0.0000000000000000000, 0.0000000000000000000, 0.0000000000000000000 ) ) ;
#97 = UNCERTAINTY_MEASURE_WITH_UNIT (LENGTH_MEASURE( 1.000000000000000082E-05 ), #123, 'distance_accuracy_value', 'NONE');
#98 = DIMENSIONAL_EXPONENTS ( 1.000000000000000000, 0.0000000000000000000, 0.0000000000000000000, 0.0000000000000000000, 0.0000000000000000000, 0.0000000000000000000, 0.0000000000000000000 ) ;
#99 = EDGE_CURVE ( 'NONE', #214, #14, #52, .T. ) ;
#100 = VERTEX_POINT ( 'NONE', #21 ) ;
#101 = LENGTH_MEASURE_WITH_UNIT ( LENGTH_MEASURE( 0.02539999999999999897 ), #77 );
#102 = DIRECTION ( 'NONE',  ( -1.000000000000000000, -0.0000000000000000000, -0.0000000000000000000 ) ) ;
#103 = PLANE ( 'NONE',  #40 ) ;
#104 = DIRECTION ( 'NONE',  ( 0.0000000000000000000, 0.0000000000000000000, 1.000000000000000000 ) ) ;
#105 = ORIENTED_EDGE ( 'NONE', *, *, #106, .T. ) ;
#106 = EDGE_CURVE ( 'NONE', #214, #218, #89, .T. ) ;
#107 = FILL_AREA_STYLE_COLOUR ( '', #181 ) ;
#108 = DIRECTION ( 'NONE',  ( 0.0000000000000000000, 0.0000000000000000000, -1.000000000000000000 ) ) ;
#109 = DIRECTION ( 'NONE',  ( 0.0000000000000000000, 0.0000000000000000000, 1.000000000000000000 ) ) ;
#110 = CIRCLE ( 'NONE', #168, 0.09800000000000000377 ) ;
#111 = CARTESIAN_POINT ( 'NONE',  ( 0.5000000000000000000, 0.0000000000000000000, 0.09800000000000000377 ) ) ;
#112 = FILL_AREA_STYLE ('',( #176 ) ) ;
#113 = DIRECTION ( 'NONE',  ( 1.000000000000000000, 0.0000000000000000000, 0.0000000000000000000 ) ) ;
#114 = PRODUCT_DEFINITION_FORMATION_WITH_SPECIFIED_SOURCE ( 'ANY', '', #119, .NOT_KNOWN. ) ;
#115 = CIRCLE ( 'NONE', #183, 0.1870000000000000551 ) ;
#116 = ORIENTED_EDGE ( 'NONE', *, *, #99, .F. ) ;
#117 = CIRCLE ( 'NONE', #33, 0.1870000000000000551 ) ;
#118 = CARTESIAN_POINT ( 'NONE',  ( 0.5000000000000000000, 0.0000000000000000000, 0.09800000000000000377 ) ) ;
#119 = PRODUCT ( 'WCP-0204 Rev1', 'WCP-0204 Rev1', '', ( #142 ) ) ;
#120 = SURFACE_SIDE_STYLE ('',( #132 ) ) ;
#121 = ORIENTED_EDGE ( 'NONE', *, *, #143, .F. ) ;
#122 = LENGTH_MEASURE_WITH_UNIT ( LENGTH_MEASURE( 0.02539999999999999897 ), #151 );
#123 =( CONVERSION_BASED_UNIT ( 'INCH', #101 ) LENGTH_UNIT ( ) NAMED_UNIT ( #98 ) );
#124 = CARTESIAN_POINT ( 'NONE',  ( -0.5000000000000000000, 0.0000000000000000000, 0.0000000000000000000 ) ) ;
#125 =( NAMED_UNIT ( * ) SI_UNIT ( $, .STERADIAN. ) SOLID_ANGLE_UNIT ( ) );
#126 = APPLICATION_CONTEXT ( 'automotive_design' ) ;
#127 = AXIS2_PLACEMENT_3D ( 'NONE', #3, #4, #26 ) ;
#128 = ORIENTED_EDGE ( 'NONE', *, *, #174, .F. ) ;
#129 = CIRCLE ( 'NONE', #180, 0.09800000000000000377 ) ;
#130 = AXIS2_PLACEMENT_3D ( 'NONE', #188, #45, #104 ) ;
#131 = FACE_OUTER_BOUND ( 'NONE', #167, .T. ) ;
#132 = SURFACE_STYLE_FILL_AREA ( #155 ) ;
#133 = CYLINDRICAL_SURFACE ( 'NONE', #127, 0.1870000000000000551 ) ;
#134 = SURFACE_STYLE_USAGE ( .BOTH. , #120 ) ;
#135 = CARTESIAN_POINT ( 'NONE',  ( -0.5000000000000000000, 0.0000000000000000000, 0.09800000000000000377 ) ) ;
#136 = AXIS2_PLACEMENT_3D ( 'NONE', #124, #158, #108 ) ;
#137 = APPLICATION_PROTOCOL_DEFINITION ( 'draft international standard', 'automotive_design', 1998, #126 ) ;
#138 = DIRECTION ( 'NONE',  ( -1.000000000000000000, -0.0000000000000000000, -0.0000000000000000000 ) ) ;
#139 = DIRECTION ( 'NONE',  ( 1.000000000000000000, 0.0000000000000000000, 0.0000000000000000000 ) ) ;
#140 = ADVANCED_FACE ( 'NONE', ( #131 ), #83, .F. ) ;
#141 = DIRECTION ( 'NONE',  ( 1.000000000000000000, 0.0000000000000000000, 0.0000000000000000000 ) ) ;
#142 = PRODUCT_CONTEXT ( 'NONE', #126, 'mechanical' ) ;
#143 = EDGE_CURVE ( 'NONE', #165, #152, #185, .T. ) ;
#144 = ADVANCED_FACE ( 'NONE', ( #189 ), #72, .T. ) ;
#145 = PRESENTATION_STYLE_ASSIGNMENT (( #134 ) ) ;
#146 = LENGTH_MEASURE_WITH_UNIT ( LENGTH_MEASURE( 0.02539999999999999897 ), #160 );
#147 = AXIS2_PLACEMENT_3D ( 'NONE', #7, #138, #109 ) ;
#148 = ORIENTED_EDGE ( 'NONE', *, *, #50, .T. ) ;
#149 = FACE_OUTER_BOUND ( 'NONE', #92, .T. ) ;
#150 = EDGE_LOOP ( 'NONE', ( #148, #59 ) ) ;
#151 =( LENGTH_UNIT ( ) NAMED_UNIT ( * ) SI_UNIT ( $, .METRE. ) );
#152 = VERTEX_POINT ( 'NONE', #94 ) ;
#153 = DIRECTION ( 'NONE',  ( 0.0000000000000000000, 0.0000000000000000000, -1.000000000000000000 ) ) ;
#154 = VECTOR ( 'NONE', #172, 39.37007874015748143 ) ;
#155 = FILL_AREA_STYLE ('',( #107 ) ) ;
#156 = DIRECTION ( 'NONE',  ( 0.0000000000000000000, 0.0000000000000000000, 1.000000000000000000 ) ) ;
#157 = VECTOR ( 'NONE', #102, 39.37007874015748143 ) ;
#158 = DIRECTION ( 'NONE',  ( 1.000000000000000000, 0.0000000000000000000, 0.0000000000000000000 ) ) ;
#159 = ORIENTED_EDGE ( 'NONE', *, *, #69, .T. ) ;
#160 =( LENGTH_UNIT ( ) NAMED_UNIT ( * ) SI_UNIT ( $, .METRE. ) );
#161 = ORIENTED_EDGE ( 'NONE', *, *, #99, .T. ) ;
#162 =( GEOMETRIC_REPRESENTATION_CONTEXT ( 3 ) GLOBAL_UNCERTAINTY_ASSIGNED_CONTEXT ( ( #97 ) ) GLOBAL_UNIT_ASSIGNED_CONTEXT ( ( #123, #208, #125 ) ) REPRESENTATION_CONTEXT ( 'NONE', 'WORKASPACE' ) );
#163 = ORIENTED_EDGE ( 'NONE', *, *, #24, .F. ) ;
#164 = LINE ( 'NONE', #118, #157 ) ;
#165 = VERTEX_POINT ( 'NONE', #11 ) ;
#166 = ADVANCED_BREP_SHAPE_REPRESENTATION ( 'WCP-0204 Rev1', ( #8, #211 ), #162 ) ;
#167 = EDGE_LOOP ( 'NONE', ( #116, #105, #204, #128 ) ) ;
#168 = AXIS2_PLACEMENT_3D ( 'NONE', #51, #55, #28 ) ;
#169 = ORIENTED_EDGE ( 'NONE', *, *, #206, .T. ) ;
#170 = VERTEX_POINT ( 'NONE', #219 ) ;
#171 = UNCERTAINTY_MEASURE_WITH_UNIT (LENGTH_MEASURE( 1.000000000000000082E-05 ), #48, 'distance_accuracy_value', 'NONE');
#172 = DIRECTION ( 'NONE',  ( -1.000000000000000000, -0.0000000000000000000, -0.0000000000000000000 ) ) ;
#173 =( NAMED_UNIT ( * ) PLANE_ANGLE_UNIT ( ) SI_UNIT ( $, .RADIAN. ) );
#174 = EDGE_CURVE ( 'NONE', #14, #79, #110, .T. ) ;
#175 = DIRECTION ( 'NONE',  ( -1.000000000000000000, -0.0000000000000000000, -0.0000000000000000000 ) ) ;
#176 = FILL_AREA_STYLE_COLOUR ( '', #41 ) ;
#177 = SURFACE_STYLE_USAGE ( .BOTH. , #10 ) ;
#178 =( NAMED_UNIT ( * ) PLANE_ANGLE_UNIT ( ) SI_UNIT ( $, .RADIAN. ) );
#179 = CARTESIAN_POINT ( 'NONE',  ( 0.5000000000000000000, 0.0000000000000000000, 0.0000000000000000000 ) ) ;
#180 = AXIS2_PLACEMENT_3D ( 'NONE', #31, #139, #73 ) ;
#181 = COLOUR_RGB ( '',0.2980392156862745057, 0.2980392156862745057, 0.2980392156862745057 ) ;
#182 = DIMENSIONAL_EXPONENTS ( 1.000000000000000000, 0.0000000000000000000, 0.0000000000000000000, 0.0000000000000000000, 0.0000000000000000000, 0.0000000000000000000, 0.0000000000000000000 ) ;
#183 = AXIS2_PLACEMENT_3D ( 'NONE', #179, #191, #75 ) ;
#184 = CIRCLE ( 'NONE', #16, 0.09800000000000000377 ) ;
#185 = CIRCLE ( 'NONE', #13, 0.1870000000000000551 ) ;
#186 = SURFACE_STYLE_FILL_AREA ( #112 ) ;
#187 = CARTESIAN_POINT ( 'NONE',  ( -0.5000000000000000000, 1.200153863164406105E-17, -0.09800000000000000377 ) ) ;
#188 = CARTESIAN_POINT ( 'NONE',  ( 0.5000000000000000000, 0.0000000000000000000, 0.0000000000000000000 ) ) ;
#189 = FACE_OUTER_BOUND ( 'NONE', #29, .T. ) ;
#190 =( GEOMETRIC_REPRESENTATION_CONTEXT ( 3 ) GLOBAL_UNCERTAINTY_ASSIGNED_CONTEXT ( ( #38 ) ) GLOBAL_UNIT_ASSIGNED_CONTEXT ( ( #221, #178, #207 ) ) REPRESENTATION_CONTEXT ( 'NONE', 'WORKASPACE' ) );
#191 = DIRECTION ( 'NONE',  ( 1.000000000000000000, 0.0000000000000000000, 0.0000000000000000000 ) ) ;
#192 = ADVANCED_FACE ( 'NONE', ( #223 ), #15, .F. ) ;
#193 = ORIENTED_EDGE ( 'NONE', *, *, #50, .F. ) ;
#194 = ADVANCED_FACE ( 'NONE', ( #81, #37 ), #74, .F. ) ;
#195 = STYLED_ITEM ( 'NONE', ( #42 ), #166 ) ;
#196 = ORIENTED_EDGE ( 'NONE', *, *, #205, .F. ) ;
#197 = STYLED_ITEM ( 'NONE', ( #145 ), #8 ) ;
#198 = ORIENTED_EDGE ( 'NONE', *, *, #2, .F. ) ;
#199 = LINE ( 'NONE', #217, #35 ) ;
#200 = ORIENTED_EDGE ( 'NONE', *, *, #106, .F. ) ;
#201 = DIRECTION ( 'NONE',  ( 0.0000000000000000000, 0.0000000000000000000, -1.000000000000000000 ) ) ;
#202 = PRESENTATION_LAYER_ASSIGNMENT (  '', '', ( #195 ) ) ;
#203 = DIRECTION ( 'NONE',  ( 1.000000000000000000, 0.0000000000000000000, 0.0000000000000000000 ) ) ;
#204 = ORIENTED_EDGE ( 'NONE', *, *, #60, .T. ) ;
#205 = EDGE_CURVE ( 'NONE', #218, #214, #129, .T. ) ;
#206 = EDGE_CURVE ( 'NONE', #170, #100, #115, .T. ) ;
#207 =( NAMED_UNIT ( * ) SI_UNIT ( $, .STERADIAN. ) SOLID_ANGLE_UNIT ( ) );
#208 =( NAMED_UNIT ( * ) PLANE_ANGLE_UNIT ( ) SI_UNIT ( $, .RADIAN. ) );
#209 = DIRECTION ( 'NONE',  ( 0.0000000000000000000, 0.0000000000000000000, 1.000000000000000000 ) ) ;
#210 = ORIENTED_EDGE ( 'NONE', *, *, #60, .F. ) ;
#211 = AXIS2_PLACEMENT_3D ( 'NONE', #96, #209, #113 ) ;
#212 = CIRCLE ( 'NONE', #213, 0.1870000000000000551 ) ;
#213 = AXIS2_PLACEMENT_3D ( 'NONE', #43, #215, #47 ) ;
#214 = VERTEX_POINT ( 'NONE', #95 ) ;
#215 = DIRECTION ( 'NONE',  ( 1.000000000000000000, 0.0000000000000000000, 0.0000000000000000000 ) ) ;
#216 = CARTESIAN_POINT ( 'NONE',  ( -0.5000000000000000000, 0.0000000000000000000, 0.0000000000000000000 ) ) ;
#217 = CARTESIAN_POINT ( 'NONE',  ( 0.5000000000000000000, 2.290089514405551281E-17, -0.1870000000000000551 ) ) ;
#218 = VERTEX_POINT ( 'NONE', #111 ) ;
#219 = CARTESIAN_POINT ( 'NONE',  ( 0.5000000000000000000, 0.0000000000000000000, 0.1870000000000000551 ) ) ;
#220 = CARTESIAN_POINT ( 'NONE',  ( -0.5000000000000000000, 0.0000000000000000000, 0.0000000000000000000 ) ) ;
#221 =( CONVERSION_BASED_UNIT ( 'INCH', #146 ) LENGTH_UNIT ( ) NAMED_UNIT ( #182 ) );
#222 = MECHANICAL_DESIGN_GEOMETRIC_PRESENTATION_REPRESENTATION (  '', ( #195 ), #190 ) ;
#223 = FACE_OUTER_BOUND ( 'NONE', #23, .T. ) ;
ENDSEC;
END-ISO-10303-21;
