ISO-10303-21;
HEADER;
FILE_DESCRIPTION (( 'STEP AP214' ),
    '1' );
FILE_NAME ('WCP-0203 Rev1.step',
    '2019-12-12T00:45:00',
    ( '' ),
    ( '' ),
    'SwSTEP 2.0',
    'SolidWorks 2018',
    '' );
FILE_SCHEMA (( 'AUTOMOTIVE_DESIGN' ));
ENDSEC;

DATA;
#1 = VERTEX_POINT ( 'NONE', #120 ) ;
#2 = ORIENTED_EDGE ( 'NONE', *, *, #170, .T. ) ;
#3 = EDGE_CURVE ( 'NONE', #155, #175, #130, .T. ) ;
#4 = PLANE ( 'NONE',  #12 ) ;
#5 = DIRECTION ( 'NONE',  ( 0.0000000000000000000, 0.0000000000000000000, -1.000000000000000000 ) ) ;
#6 = CARTESIAN_POINT ( 'NONE',  ( 0.3125000000000000000, 0.0000000000000000000, 0.0000000000000000000 ) ) ;
#7 = FACE_OUTER_BOUND ( 'NONE', #158, .T. ) ;
#8 = EDGE_CURVE ( 'NONE', #151, #1, #199, .T. ) ;
#9 = FILL_AREA_STYLE ('',( #202 ) ) ;
#10 = PRODUCT ( 'WCP-0203 Rev1', 'WCP-0203 Rev1', '', ( #132 ) ) ;
#11 = EDGE_LOOP ( 'NONE', ( #97, #191, #79, #49 ) ) ;
#12 = AXIS2_PLACEMENT_3D ( 'NONE', #131, #22, #183 ) ;
#13 = DIMENSIONAL_EXPONENTS ( 1.000000000000000000, 0.0000000000000000000, 0.0000000000000000000, 0.0000000000000000000, 0.0000000000000000000, 0.0000000000000000000, 0.0000000000000000000 ) ;
#14 = EDGE_CURVE ( 'NONE', #219, #121, #141, .T. ) ;
#15 = ORIENTED_EDGE ( 'NONE', *, *, #117, .T. ) ;
#16 = AXIS2_PLACEMENT_3D ( 'NONE', #128, #167, #145 ) ;
#17 = FACE_OUTER_BOUND ( 'NONE', #11, .T. ) ;
#18 =( CONVERSION_BASED_UNIT ( 'INCH', #159 ) LENGTH_UNIT ( ) NAMED_UNIT ( #13 ) );
#19 = PLANE ( 'NONE',  #206 ) ;
#20 = VECTOR ( 'NONE', #73, 39.37007874015748143 ) ;
#21 = EDGE_LOOP ( 'NONE', ( #100, #122, #123, #15 ) ) ;
#22 = DIRECTION ( 'NONE',  ( 1.000000000000000000, 0.0000000000000000000, 0.0000000000000000000 ) ) ;
#23 = UNCERTAINTY_MEASURE_WITH_UNIT (LENGTH_MEASURE( 1.000000000000000082E-05 ), #187, 'distance_accuracy_value', 'NONE');
#24 = SURFACE_STYLE_USAGE ( .BOTH. , #201 ) ;
#25 = SHAPE_DEFINITION_REPRESENTATION ( #140, #119 ) ;
#26 = FILL_AREA_STYLE_COLOUR ( '', #154 ) ;
#27 = ORIENTED_EDGE ( 'NONE', *, *, #83, .F. ) ;
#28 = LINE ( 'NONE', #52, #48 ) ;
#29 = EDGE_CURVE ( 'NONE', #1, #223, #220, .T. ) ;
#30 = AXIS2_PLACEMENT_3D ( 'NONE', #36, #90, #85 ) ;
#31 = DIMENSIONAL_EXPONENTS ( 1.000000000000000000, 0.0000000000000000000, 0.0000000000000000000, 0.0000000000000000000, 0.0000000000000000000, 0.0000000000000000000, 0.0000000000000000000 ) ;
#32 = AXIS2_PLACEMENT_3D ( 'NONE', #41, #107, #5 ) ;
#33 = LINE ( 'NONE', #106, #189 ) ;
#34 = AXIS2_PLACEMENT_3D ( 'NONE', #55, #69, #104 ) ;
#35 =( NAMED_UNIT ( * ) PLANE_ANGLE_UNIT ( ) SI_UNIT ( $, .RADIAN. ) );
#36 = CARTESIAN_POINT ( 'NONE',  ( -0.3125000000000000000, 0.0000000000000000000, 0.0000000000000000000 ) ) ;
#37 = DIRECTION ( 'NONE',  ( 0.0000000000000000000, 0.0000000000000000000, 1.000000000000000000 ) ) ;
#38 = ORIENTED_EDGE ( 'NONE', *, *, #157, .F. ) ;
#39 =( NAMED_UNIT ( * ) SI_UNIT ( $, .STERADIAN. ) SOLID_ANGLE_UNIT ( ) );
#40 = DIRECTION ( 'NONE',  ( -1.000000000000000000, -0.0000000000000000000, -0.0000000000000000000 ) ) ;
#41 = CARTESIAN_POINT ( 'NONE',  ( 0.3125000000000000000, 0.0000000000000000000, 0.0000000000000000000 ) ) ;
#42 =( LENGTH_UNIT ( ) NAMED_UNIT ( * ) SI_UNIT ( $, .METRE. ) );
#43 = EDGE_CURVE ( 'NONE', #105, #151, #174, .T. ) ;
#44 =( LENGTH_UNIT ( ) NAMED_UNIT ( * ) SI_UNIT ( $, .METRE. ) );
#45 =( LENGTH_UNIT ( ) NAMED_UNIT ( * ) SI_UNIT ( $, .METRE. ) );
#46 = APPLICATION_CONTEXT ( 'automotive_design' ) ;
#47 = AXIS2_PLACEMENT_3D ( 'NONE', #72, #211, #37 ) ;
#48 = VECTOR ( 'NONE', #166, 39.37007874015748143 ) ;
#49 = ORIENTED_EDGE ( 'NONE', *, *, #177, .F. ) ;
#50 = COLOUR_RGB ( '',0.2980392156862745057, 0.2980392156862745057, 0.2980392156862745057 ) ;
#51 = DIRECTION ( 'NONE',  ( 0.0000000000000000000, 0.0000000000000000000, -1.000000000000000000 ) ) ;
#52 = CARTESIAN_POINT ( 'NONE',  ( 0.3125000000000000000, 1.200153863164406105E-17, -0.09800000000000000377 ) ) ;
#53 = CARTESIAN_POINT ( 'NONE',  ( -0.3125000000000000000, 0.0000000000000000000, 0.0000000000000000000 ) ) ;
#54 = VECTOR ( 'NONE', #190, 39.37007874015748143 ) ;
#55 = CARTESIAN_POINT ( 'NONE',  ( -0.3125000000000000000, 0.0000000000000000000, 0.0000000000000000000 ) ) ;
#56 = DIRECTION ( 'NONE',  ( 0.0000000000000000000, 0.0000000000000000000, -1.000000000000000000 ) ) ;
#57 =( CONVERSION_BASED_UNIT ( 'INCH', #91 ) LENGTH_UNIT ( ) NAMED_UNIT ( #31 ) );
#58 = ORIENTED_EDGE ( 'NONE', *, *, #221, .T. ) ;
#59 = SURFACE_SIDE_STYLE ('',( #118 ) ) ;
#60 = ADVANCED_FACE ( 'NONE', ( #17 ), #205, .T. ) ;
#61 = ORIENTED_EDGE ( 'NONE', *, *, #43, .T. ) ;
#62 = UNCERTAINTY_MEASURE_WITH_UNIT (LENGTH_MEASURE( 1.000000000000000082E-05 ), #57, 'distance_accuracy_value', 'NONE');
#63 = ORIENTED_EDGE ( 'NONE', *, *, #157, .T. ) ;
#64 = FACE_BOUND ( 'NONE', #101, .T. ) ;
#65 = EDGE_LOOP ( 'NONE', ( #178, #63 ) ) ;
#66 = STYLED_ITEM ( 'NONE', ( #99 ), #119 ) ;
#67 = CARTESIAN_POINT ( 'NONE',  ( 0.3125000000000000000, 2.290089514405551281E-17, -0.1870000000000000551 ) ) ;
#68 = ORIENTED_EDGE ( 'NONE', *, *, #117, .F. ) ;
#69 = DIRECTION ( 'NONE',  ( 1.000000000000000000, 0.0000000000000000000, 0.0000000000000000000 ) ) ;
#70 = DIRECTION ( 'NONE',  ( 1.000000000000000000, 0.0000000000000000000, 0.0000000000000000000 ) ) ;
#71 =( GEOMETRIC_REPRESENTATION_CONTEXT ( 3 ) GLOBAL_UNCERTAINTY_ASSIGNED_CONTEXT ( ( #156 ) ) GLOBAL_UNIT_ASSIGNED_CONTEXT ( ( #18, #35, #181 ) ) REPRESENTATION_CONTEXT ( 'NONE', 'WORKASPACE' ) );
#72 = CARTESIAN_POINT ( 'NONE',  ( 0.3125000000000000000, 0.0000000000000000000, 0.0000000000000000000 ) ) ;
#73 = DIRECTION ( 'NONE',  ( -1.000000000000000000, -0.0000000000000000000, -0.0000000000000000000 ) ) ;
#74 = DIRECTION ( 'NONE',  ( 0.0000000000000000000, 0.0000000000000000000, 1.000000000000000000 ) ) ;
#75 = APPLICATION_PROTOCOL_DEFINITION ( 'draft international standard', 'automotive_design', 1998, #46 ) ;
#76 = ORIENTED_EDGE ( 'NONE', *, *, #98, .F. ) ;
#77 = EDGE_LOOP ( 'NONE', ( #27, #58, #81, #38 ) ) ;
#78 = AXIS2_PLACEMENT_3D ( 'NONE', #214, #94, #74 ) ;
#79 = ORIENTED_EDGE ( 'NONE', *, *, #29, .T. ) ;
#80 = AXIS2_PLACEMENT_3D ( 'NONE', #186, #168, #56 ) ;
#81 = ORIENTED_EDGE ( 'NONE', *, *, #98, .T. ) ;
#82 = CYLINDRICAL_SURFACE ( 'NONE', #47, 0.09800000000000000377 ) ;
#83 = EDGE_CURVE ( 'NONE', #175, #121, #28, .T. ) ;
#84 = ORIENTED_EDGE ( 'NONE', *, *, #221, .F. ) ;
#85 = DIRECTION ( 'NONE',  ( 0.0000000000000000000, 0.0000000000000000000, -1.000000000000000000 ) ) ;
#86 = MECHANICAL_DESIGN_GEOMETRIC_PRESENTATION_REPRESENTATION (  '', ( #66 ), #137 ) ;
#87 = CARTESIAN_POINT ( 'NONE',  ( 0.3125000000000000000, 0.0000000000000000000, 0.1870000000000000551 ) ) ;
#88 = CYLINDRICAL_SURFACE ( 'NONE', #78, 0.09800000000000000377 ) ;
#89 = CARTESIAN_POINT ( 'NONE',  ( 0.3125000000000000000, 0.0000000000000000000, 0.0000000000000000000 ) ) ;
#90 = DIRECTION ( 'NONE',  ( 1.000000000000000000, 0.0000000000000000000, 0.0000000000000000000 ) ) ;
#91 = LENGTH_MEASURE_WITH_UNIT ( LENGTH_MEASURE( 0.02539999999999999897 ), #45 );
#92 = CARTESIAN_POINT ( 'NONE',  ( 0.3125000000000000000, 1.200153863164406105E-17, -0.09800000000000000377 ) ) ;
#93 = EDGE_LOOP ( 'NONE', ( #68, #173 ) ) ;
#94 = DIRECTION ( 'NONE',  ( -1.000000000000000000, -0.0000000000000000000, -0.0000000000000000000 ) ) ;
#95 = DIRECTION ( 'NONE',  ( 1.000000000000000000, 0.0000000000000000000, 0.0000000000000000000 ) ) ;
#96 = CIRCLE ( 'NONE', #80, 0.1870000000000000551 ) ;
#97 = ORIENTED_EDGE ( 'NONE', *, *, #170, .F. ) ;
#98 = EDGE_CURVE ( 'NONE', #155, #219, #33, .T. ) ;
#99 = PRESENTATION_STYLE_ASSIGNMENT (( #115 ) ) ;
#100 = ORIENTED_EDGE ( 'NONE', *, *, #8, .F. ) ;
#101 = EDGE_LOOP ( 'NONE', ( #160, #84 ) ) ;
#102 = CIRCLE ( 'NONE', #32, 0.09800000000000000377 ) ;
#103 = FACE_BOUND ( 'NONE', #65, .T. ) ;
#104 = DIRECTION ( 'NONE',  ( 0.0000000000000000000, 0.0000000000000000000, -1.000000000000000000 ) ) ;
#105 = VERTEX_POINT ( 'NONE', #87 ) ;
#106 = CARTESIAN_POINT ( 'NONE',  ( 0.3125000000000000000, 0.0000000000000000000, 0.09800000000000000377 ) ) ;
#107 = DIRECTION ( 'NONE',  ( 1.000000000000000000, 0.0000000000000000000, 0.0000000000000000000 ) ) ;
#108 = DIRECTION ( 'NONE',  ( -1.000000000000000000, -0.0000000000000000000, -0.0000000000000000000 ) ) ;
#109 = FACE_OUTER_BOUND ( 'NONE', #93, .T. ) ;
#110 = CARTESIAN_POINT ( 'NONE',  ( -0.3125000000000000000, 0.0000000000000000000, 0.0000000000000000000 ) ) ;
#111 =( GEOMETRIC_REPRESENTATION_CONTEXT ( 3 ) GLOBAL_UNCERTAINTY_ASSIGNED_CONTEXT ( ( #62 ) ) GLOBAL_UNIT_ASSIGNED_CONTEXT ( ( #57, #112, #39 ) ) REPRESENTATION_CONTEXT ( 'NONE', 'WORKASPACE' ) );
#112 =( NAMED_UNIT ( * ) PLANE_ANGLE_UNIT ( ) SI_UNIT ( $, .RADIAN. ) );
#113 = CARTESIAN_POINT ( 'NONE',  ( -0.3125000000000000000, 0.0000000000000000000, 0.09800000000000000377 ) ) ;
#114 = CARTESIAN_POINT ( 'NONE',  ( 0.3125000000000000000, 0.0000000000000000000, 0.1870000000000000551 ) ) ;
#115 = SURFACE_STYLE_USAGE ( .BOTH. , #59 ) ;
#116 = PRESENTATION_LAYER_ASSIGNMENT (  '', '', ( #184 ) ) ;
#117 = EDGE_CURVE ( 'NONE', #223, #1, #194, .T. ) ;
#118 = SURFACE_STYLE_FILL_AREA ( #153 ) ;
#119 = ADVANCED_BREP_SHAPE_REPRESENTATION ( 'WCP-0203 Rev1', ( #217, #176 ), #111 ) ;
#120 = CARTESIAN_POINT ( 'NONE',  ( -0.3125000000000000000, 2.290089514405551281E-17, -0.1870000000000000551 ) ) ;
#121 = VERTEX_POINT ( 'NONE', #148 ) ;
#122 = ORIENTED_EDGE ( 'NONE', *, *, #43, .F. ) ;
#123 = ORIENTED_EDGE ( 'NONE', *, *, #177, .T. ) ;
#124 = ADVANCED_FACE ( 'NONE', ( #109, #103 ), #19, .F. ) ;
#125 = AXIS2_PLACEMENT_3D ( 'NONE', #53, #195, #213 ) ;
#126 = PRODUCT_DEFINITION_CONTEXT ( 'detailed design', #169, 'design' ) ;
#127 = CARTESIAN_POINT ( 'NONE',  ( -0.3125000000000000000, 0.0000000000000000000, 0.0000000000000000000 ) ) ;
#128 = CARTESIAN_POINT ( 'NONE',  ( 0.3125000000000000000, 0.0000000000000000000, 0.0000000000000000000 ) ) ;
#129 = DIRECTION ( 'NONE',  ( 1.000000000000000000, 0.0000000000000000000, 0.0000000000000000000 ) ) ;
#130 = CIRCLE ( 'NONE', #162, 0.09800000000000000377 ) ;
#131 = CARTESIAN_POINT ( 'NONE',  ( 0.3125000000000000000, 0.0000000000000000000, 0.0000000000000000000 ) ) ;
#132 = PRODUCT_CONTEXT ( 'NONE', #46, 'mechanical' ) ;
#133 = CARTESIAN_POINT ( 'NONE',  ( -0.3125000000000000000, 0.0000000000000000000, 0.1870000000000000551 ) ) ;
#134 = PRODUCT_DEFINITION_FORMATION_WITH_SPECIFIED_SOURCE ( 'ANY', '', #10, .NOT_KNOWN. ) ;
#135 = ORIENTED_EDGE ( 'NONE', *, *, #14, .F. ) ;
#136 = ADVANCED_FACE ( 'NONE', ( #144 ), #198, .T. ) ;
#137 =( GEOMETRIC_REPRESENTATION_CONTEXT ( 3 ) GLOBAL_UNCERTAINTY_ASSIGNED_CONTEXT ( ( #23 ) ) GLOBAL_UNIT_ASSIGNED_CONTEXT ( ( #187, #215, #147 ) ) REPRESENTATION_CONTEXT ( 'NONE', 'WORKASPACE' ) );
#138 = ADVANCED_FACE ( 'NONE', ( #179 ), #82, .F. ) ;
#139 = ADVANCED_FACE ( 'NONE', ( #218, #64 ), #4, .T. ) ;
#140 = PRODUCT_DEFINITION_SHAPE ( 'NONE', 'NONE',  #204 ) ;
#141 = CIRCLE ( 'NONE', #125, 0.09800000000000000377 ) ;
#142 = SURFACE_STYLE_FILL_AREA ( #9 ) ;
#143 = DIRECTION ( 'NONE',  ( 1.000000000000000000, 0.0000000000000000000, 0.0000000000000000000 ) ) ;
#144 = FACE_OUTER_BOUND ( 'NONE', #21, .T. ) ;
#145 = DIRECTION ( 'NONE',  ( 0.0000000000000000000, 0.0000000000000000000, 1.000000000000000000 ) ) ;
#146 = DIRECTION ( 'NONE',  ( 1.000000000000000000, 0.0000000000000000000, 0.0000000000000000000 ) ) ;
#147 =( NAMED_UNIT ( * ) SI_UNIT ( $, .STERADIAN. ) SOLID_ANGLE_UNIT ( ) );
#148 = CARTESIAN_POINT ( 'NONE',  ( -0.3125000000000000000, 1.200153863164406105E-17, -0.09800000000000000377 ) ) ;
#149 = DIRECTION ( 'NONE',  ( 0.0000000000000000000, 0.0000000000000000000, 1.000000000000000000 ) ) ;
#150 = CARTESIAN_POINT ( 'NONE',  ( 0.3125000000000000000, 2.290089514405551281E-17, -0.1870000000000000551 ) ) ;
#151 = VERTEX_POINT ( 'NONE', #150 ) ;
#152 = ORIENTED_EDGE ( 'NONE', *, *, #3, .T. ) ;
#153 = FILL_AREA_STYLE ('',( #26 ) ) ;
#154 = COLOUR_RGB ( '',0.2980392156862745057, 0.2980392156862745057, 0.2980392156862745057 ) ;
#155 = VERTEX_POINT ( 'NONE', #196 ) ;
#156 = UNCERTAINTY_MEASURE_WITH_UNIT (LENGTH_MEASURE( 1.000000000000000082E-05 ), #18, 'distance_accuracy_value', 'NONE');
#157 = EDGE_CURVE ( 'NONE', #121, #219, #185, .T. ) ;
#158 = EDGE_LOOP ( 'NONE', ( #152, #207, #135, #76 ) ) ;
#159 = LENGTH_MEASURE_WITH_UNIT ( LENGTH_MEASURE( 0.02539999999999999897 ), #44 );
#160 = ORIENTED_EDGE ( 'NONE', *, *, #3, .F. ) ;
#161 = EDGE_LOOP ( 'NONE', ( #61, #2 ) ) ;
#162 = AXIS2_PLACEMENT_3D ( 'NONE', #212, #143, #209 ) ;
#163 = DIRECTION ( 'NONE',  ( 0.0000000000000000000, 0.0000000000000000000, 1.000000000000000000 ) ) ;
#164 = DIMENSIONAL_EXPONENTS ( 1.000000000000000000, 0.0000000000000000000, 0.0000000000000000000, 0.0000000000000000000, 0.0000000000000000000, 0.0000000000000000000, 0.0000000000000000000 ) ;
#165 = CLOSED_SHELL ( 'NONE', ( #172, #60, #139, #124, #136, #138 ) ) ;
#166 = DIRECTION ( 'NONE',  ( -1.000000000000000000, -0.0000000000000000000, -0.0000000000000000000 ) ) ;
#167 = DIRECTION ( 'NONE',  ( -1.000000000000000000, -0.0000000000000000000, -0.0000000000000000000 ) ) ;
#168 = DIRECTION ( 'NONE',  ( 1.000000000000000000, 0.0000000000000000000, 0.0000000000000000000 ) ) ;
#169 = APPLICATION_CONTEXT ( 'automotive_design' ) ;
#170 = EDGE_CURVE ( 'NONE', #151, #105, #96, .T. ) ;
#171 = LENGTH_MEASURE_WITH_UNIT ( LENGTH_MEASURE( 0.02539999999999999897 ), #42 );
#172 = ADVANCED_FACE ( 'NONE', ( #7 ), #88, .F. ) ;
#173 = ORIENTED_EDGE ( 'NONE', *, *, #29, .F. ) ;
#174 = CIRCLE ( 'NONE', #182, 0.1870000000000000551 ) ;
#175 = VERTEX_POINT ( 'NONE', #92 ) ;
#176 = AXIS2_PLACEMENT_3D ( 'NONE', #216, #149, #95 ) ;
#177 = EDGE_CURVE ( 'NONE', #105, #223, #192, .T. ) ;
#178 = ORIENTED_EDGE ( 'NONE', *, *, #14, .T. ) ;
#179 = FACE_OUTER_BOUND ( 'NONE', #77, .T. ) ;
#180 = MECHANICAL_DESIGN_GEOMETRIC_PRESENTATION_REPRESENTATION (  '', ( #184 ), #71 ) ;
#181 =( NAMED_UNIT ( * ) SI_UNIT ( $, .STERADIAN. ) SOLID_ANGLE_UNIT ( ) );
#182 = AXIS2_PLACEMENT_3D ( 'NONE', #6, #146, #210 ) ;
#183 = DIRECTION ( 'NONE',  ( 0.0000000000000000000, 0.0000000000000000000, -1.000000000000000000 ) ) ;
#184 = STYLED_ITEM ( 'NONE', ( #188 ), #217 ) ;
#185 = CIRCLE ( 'NONE', #34, 0.09800000000000000377 ) ;
#186 = CARTESIAN_POINT ( 'NONE',  ( 0.3125000000000000000, 0.0000000000000000000, 0.0000000000000000000 ) ) ;
#187 =( CONVERSION_BASED_UNIT ( 'INCH', #171 ) LENGTH_UNIT ( ) NAMED_UNIT ( #164 ) );
#188 = PRESENTATION_STYLE_ASSIGNMENT (( #24 ) ) ;
#189 = VECTOR ( 'NONE', #108, 39.37007874015748143 ) ;
#190 = DIRECTION ( 'NONE',  ( -1.000000000000000000, -0.0000000000000000000, -0.0000000000000000000 ) ) ;
#191 = ORIENTED_EDGE ( 'NONE', *, *, #8, .T. ) ;
#192 = LINE ( 'NONE', #114, #20 ) ;
#193 = AXIS2_PLACEMENT_3D ( 'NONE', #89, #40, #163 ) ;
#194 = CIRCLE ( 'NONE', #200, 0.1870000000000000551 ) ;
#195 = DIRECTION ( 'NONE',  ( 1.000000000000000000, 0.0000000000000000000, 0.0000000000000000000 ) ) ;
#196 = CARTESIAN_POINT ( 'NONE',  ( 0.3125000000000000000, 0.0000000000000000000, 0.09800000000000000377 ) ) ;
#197 = DIRECTION ( 'NONE',  ( 0.0000000000000000000, 0.0000000000000000000, -1.000000000000000000 ) ) ;
#198 = CYLINDRICAL_SURFACE ( 'NONE', #193, 0.1870000000000000551 ) ;
#199 = LINE ( 'NONE', #67, #54 ) ;
#200 = AXIS2_PLACEMENT_3D ( 'NONE', #127, #129, #197 ) ;
#201 = SURFACE_SIDE_STYLE ('',( #142 ) ) ;
#202 = FILL_AREA_STYLE_COLOUR ( '', #50 ) ;
#203 = APPLICATION_PROTOCOL_DEFINITION ( 'draft international standard', 'automotive_design', 1998, #169 ) ;
#204 = PRODUCT_DEFINITION ( 'UNKNOWN', '', #134, #126 ) ;
#205 = CYLINDRICAL_SURFACE ( 'NONE', #16, 0.1870000000000000551 ) ;
#206 = AXIS2_PLACEMENT_3D ( 'NONE', #110, #70, #51 ) ;
#207 = ORIENTED_EDGE ( 'NONE', *, *, #83, .T. ) ;
#208 = PRESENTATION_LAYER_ASSIGNMENT (  '', '', ( #66 ) ) ;
#209 = DIRECTION ( 'NONE',  ( 0.0000000000000000000, 0.0000000000000000000, -1.000000000000000000 ) ) ;
#210 = DIRECTION ( 'NONE',  ( 0.0000000000000000000, 0.0000000000000000000, -1.000000000000000000 ) ) ;
#211 = DIRECTION ( 'NONE',  ( -1.000000000000000000, -0.0000000000000000000, -0.0000000000000000000 ) ) ;
#212 = CARTESIAN_POINT ( 'NONE',  ( 0.3125000000000000000, 0.0000000000000000000, 0.0000000000000000000 ) ) ;
#213 = DIRECTION ( 'NONE',  ( 0.0000000000000000000, 0.0000000000000000000, -1.000000000000000000 ) ) ;
#214 = CARTESIAN_POINT ( 'NONE',  ( 0.3125000000000000000, 0.0000000000000000000, 0.0000000000000000000 ) ) ;
#215 =( NAMED_UNIT ( * ) PLANE_ANGLE_UNIT ( ) SI_UNIT ( $, .RADIAN. ) );
#216 = CARTESIAN_POINT ( 'NONE',  ( 0.0000000000000000000, 0.0000000000000000000, 0.0000000000000000000 ) ) ;
#217 = MANIFOLD_SOLID_BREP ( 'Boss-Extrude1', #165 ) ;
#218 = FACE_OUTER_BOUND ( 'NONE', #161, .T. ) ;
#219 = VERTEX_POINT ( 'NONE', #113 ) ;
#220 = CIRCLE ( 'NONE', #30, 0.1870000000000000551 ) ;
#221 = EDGE_CURVE ( 'NONE', #175, #155, #102, .T. ) ;
#222 = PRODUCT_RELATED_PRODUCT_CATEGORY ( 'part', '', ( #10 ) ) ;
#223 = VERTEX_POINT ( 'NONE', #133 ) ;
ENDSEC;
END-ISO-10303-21;
