ISO-10303-21;
HEADER;
FILE_DESCRIPTION (( 'STEP AP214' ),
    '1' );
FILE_NAME ('WCP-0202 Rev1.step',
    '2019-12-12T00:44:56',
    ( '' ),
    ( '' ),
    'SwSTEP 2.0',
    'SolidWorks 2018',
    '' );
FILE_SCHEMA (( 'AUTOMOTIVE_DESIGN' ));
ENDSEC;

DATA;
#1 = ORIENTED_EDGE ( 'NONE', *, *, #194, .T. ) ;
#2 = FACE_OUTER_BOUND ( 'NONE', #72, .T. ) ;
#3 = SURFACE_STYLE_FILL_AREA ( #54 ) ;
#4 = ORIENTED_EDGE ( 'NONE', *, *, #75, .T. ) ;
#5 = SHAPE_DEFINITION_REPRESENTATION ( #202, #109 ) ;
#6 = AXIS2_PLACEMENT_3D ( 'NONE', #14, #11, #8 ) ;
#7 = PLANE ( 'NONE',  #203 ) ;
#8 = DIRECTION ( 'NONE',  ( 0.0000000000000000000, 0.0000000000000000000, -1.000000000000000000 ) ) ;
#9 = ORIENTED_EDGE ( 'NONE', *, *, #114, .F. ) ;
#10 = LENGTH_MEASURE_WITH_UNIT ( LENGTH_MEASURE( 0.02539999999999999897 ), #67 );
#11 = DIRECTION ( 'NONE',  ( 1.000000000000000000, 0.0000000000000000000, 0.0000000000000000000 ) ) ;
#12 = ADVANCED_FACE ( 'NONE', ( #65, #15 ), #7, .F. ) ;
#13 = DIRECTION ( 'NONE',  ( 1.000000000000000000, 0.0000000000000000000, 0.0000000000000000000 ) ) ;
#14 = CARTESIAN_POINT ( 'NONE',  ( 0.2500000000000000000, 0.0000000000000000000, 0.0000000000000000000 ) ) ;
#15 = FACE_BOUND ( 'NONE', #205, .T. ) ;
#16 = DIRECTION ( 'NONE',  ( 1.000000000000000000, 0.0000000000000000000, 0.0000000000000000000 ) ) ;
#17 = DIRECTION ( 'NONE',  ( 0.0000000000000000000, 0.0000000000000000000, -1.000000000000000000 ) ) ;
#18 = APPLICATION_PROTOCOL_DEFINITION ( 'draft international standard', 'automotive_design', 1998, #103 ) ;
#19 = ORIENTED_EDGE ( 'NONE', *, *, #179, .T. ) ;
#20 = CARTESIAN_POINT ( 'NONE',  ( -0.2500000000000000000, 0.0000000000000000000, 0.09800000000000000377 ) ) ;
#21 = CARTESIAN_POINT ( 'NONE',  ( 0.2500000000000000000, 0.0000000000000000000, 0.0000000000000000000 ) ) ;
#22 = EDGE_LOOP ( 'NONE', ( #156, #9 ) ) ;
#23 = CIRCLE ( 'NONE', #212, 0.09800000000000000377 ) ;
#24 = EDGE_CURVE ( 'NONE', #201, #191, #128, .T. ) ;
#25 = ORIENTED_EDGE ( 'NONE', *, *, #180, .T. ) ;
#26 = EDGE_LOOP ( 'NONE', ( #222, #190, #123, #127 ) ) ;
#27 = DIRECTION ( 'NONE',  ( -1.000000000000000000, -0.0000000000000000000, -0.0000000000000000000 ) ) ;
#28 = EDGE_CURVE ( 'NONE', #191, #214, #23, .T. ) ;
#29 = CARTESIAN_POINT ( 'NONE',  ( 0.2500000000000000000, 0.0000000000000000000, 0.1870000000000000551 ) ) ;
#30 = CARTESIAN_POINT ( 'NONE',  ( -0.2500000000000000000, 0.0000000000000000000, 0.1870000000000000551 ) ) ;
#31 = FACE_OUTER_BOUND ( 'NONE', #86, .T. ) ;
#32 = CIRCLE ( 'NONE', #60, 0.09800000000000000377 ) ;
#33 = DIRECTION ( 'NONE',  ( -1.000000000000000000, -0.0000000000000000000, -0.0000000000000000000 ) ) ;
#34 =( NAMED_UNIT ( * ) PLANE_ANGLE_UNIT ( ) SI_UNIT ( $, .RADIAN. ) );
#35 = SURFACE_STYLE_USAGE ( .BOTH. , #140 ) ;
#36 = FACE_OUTER_BOUND ( 'NONE', #41, .T. ) ;
#37 =( NAMED_UNIT ( * ) SI_UNIT ( $, .STERADIAN. ) SOLID_ANGLE_UNIT ( ) );
#38 = FACE_OUTER_BOUND ( 'NONE', #99, .T. ) ;
#39 = LINE ( 'NONE', #211, #42 ) ;
#40 = EDGE_CURVE ( 'NONE', #98, #214, #39, .T. ) ;
#41 = EDGE_LOOP ( 'NONE', ( #71, #4, #83, #192 ) ) ;
#42 = VECTOR ( 'NONE', #134, 39.37007874015748143 ) ;
#43 = AXIS2_PLACEMENT_3D ( 'NONE', #76, #111, #133 ) ;
#44 = CYLINDRICAL_SURFACE ( 'NONE', #189, 0.1870000000000000551 ) ;
#45 = CARTESIAN_POINT ( 'NONE',  ( -0.2500000000000000000, 0.0000000000000000000, 0.0000000000000000000 ) ) ;
#46 = FACE_OUTER_BOUND ( 'NONE', #26, .T. ) ;
#47 =( GEOMETRIC_REPRESENTATION_CONTEXT ( 3 ) GLOBAL_UNCERTAINTY_ASSIGNED_CONTEXT ( ( #219 ) ) GLOBAL_UNIT_ASSIGNED_CONTEXT ( ( #213, #139, #117 ) ) REPRESENTATION_CONTEXT ( 'NONE', 'WORKASPACE' ) );
#48 = DIRECTION ( 'NONE',  ( 0.0000000000000000000, 0.0000000000000000000, -1.000000000000000000 ) ) ;
#49 = ORIENTED_EDGE ( 'NONE', *, *, #204, .T. ) ;
#50 = DIRECTION ( 'NONE',  ( 1.000000000000000000, 0.0000000000000000000, 0.0000000000000000000 ) ) ;
#51 = ORIENTED_EDGE ( 'NONE', *, *, #75, .F. ) ;
#52 = CIRCLE ( 'NONE', #43, 0.1870000000000000551 ) ;
#53 =( CONVERSION_BASED_UNIT ( 'INCH', #10 ) LENGTH_UNIT ( ) NAMED_UNIT ( #118 ) );
#54 = FILL_AREA_STYLE ('',( #155 ) ) ;
#55 = APPLICATION_PROTOCOL_DEFINITION ( 'draft international standard', 'automotive_design', 1998, #188 ) ;
#56 = PRODUCT ( 'WCP-0202 Rev1', 'WCP-0202 Rev1', '', ( #105 ) ) ;
#57 = EDGE_CURVE ( 'NONE', #201, #98, #59, .T. ) ;
#58 = DIRECTION ( 'NONE',  ( 1.000000000000000000, 0.0000000000000000000, 0.0000000000000000000 ) ) ;
#59 = CIRCLE ( 'NONE', #6, 0.09800000000000000377 ) ;
#60 = AXIS2_PLACEMENT_3D ( 'NONE', #119, #50, #120 ) ;
#61 = ORIENTED_EDGE ( 'NONE', *, *, #126, .F. ) ;
#62 = AXIS2_PLACEMENT_3D ( 'NONE', #136, #154, #102 ) ;
#63 = CARTESIAN_POINT ( 'NONE',  ( 0.2500000000000000000, 0.0000000000000000000, 0.09800000000000000377 ) ) ;
#64 = ORIENTED_EDGE ( 'NONE', *, *, #206, .T. ) ;
#65 = FACE_OUTER_BOUND ( 'NONE', #22, .T. ) ;
#66 = DIRECTION ( 'NONE',  ( 1.000000000000000000, 0.0000000000000000000, 0.0000000000000000000 ) ) ;
#67 =( LENGTH_UNIT ( ) NAMED_UNIT ( * ) SI_UNIT ( $, .METRE. ) );
#68 = ADVANCED_FACE ( 'NONE', ( #36 ), #129, .T. ) ;
#69 =( NAMED_UNIT ( * ) PLANE_ANGLE_UNIT ( ) SI_UNIT ( $, .RADIAN. ) );
#70 = CARTESIAN_POINT ( 'NONE',  ( 0.2500000000000000000, 1.200153863164406105E-17, -0.09800000000000000377 ) ) ;
#71 = ORIENTED_EDGE ( 'NONE', *, *, #206, .F. ) ;
#72 = EDGE_LOOP ( 'NONE', ( #87, #64 ) ) ;
#73 = MECHANICAL_DESIGN_GEOMETRIC_PRESENTATION_REPRESENTATION (  '', ( #175 ), #110 ) ;
#74 = PRESENTATION_STYLE_ASSIGNMENT (( #200 ) ) ;
#75 = EDGE_CURVE ( 'NONE', #135, #146, #162, .T. ) ;
#76 = CARTESIAN_POINT ( 'NONE',  ( -0.2500000000000000000, 0.0000000000000000000, 0.0000000000000000000 ) ) ;
#77 = DIRECTION ( 'NONE',  ( -1.000000000000000000, -0.0000000000000000000, -0.0000000000000000000 ) ) ;
#78 = FILL_AREA_STYLE ('',( #80 ) ) ;
#79 = PRODUCT_DEFINITION_FORMATION_WITH_SPECIFIED_SOURCE ( 'ANY', '', #56, .NOT_KNOWN. ) ;
#80 = FILL_AREA_STYLE_COLOUR ( '', #207 ) ;
#81 = ADVANCED_FACE ( 'NONE', ( #2, #174 ), #90, .T. ) ;
#82 = DIRECTION ( 'NONE',  ( 1.000000000000000000, 0.0000000000000000000, 0.0000000000000000000 ) ) ;
#83 = ORIENTED_EDGE ( 'NONE', *, *, #114, .T. ) ;
#84 = CARTESIAN_POINT ( 'NONE',  ( 0.0000000000000000000, 0.0000000000000000000, 0.0000000000000000000 ) ) ;
#85 = AXIS2_PLACEMENT_3D ( 'NONE', #116, #33, #131 ) ;
#86 = EDGE_LOOP ( 'NONE', ( #51, #61, #49, #25 ) ) ;
#87 = ORIENTED_EDGE ( 'NONE', *, *, #126, .T. ) ;
#88 = VECTOR ( 'NONE', #171, 39.37007874015748143 ) ;
#89 = CIRCLE ( 'NONE', #150, 0.1870000000000000551 ) ;
#90 = PLANE ( 'NONE',  #165 ) ;
#91 = ORIENTED_EDGE ( 'NONE', *, *, #28, .T. ) ;
#92 = CARTESIAN_POINT ( 'NONE',  ( -0.2500000000000000000, 2.290089514405551281E-17, -0.1870000000000000551 ) ) ;
#93 = ADVANCED_FACE ( 'NONE', ( #31 ), #44, .T. ) ;
#94 = STYLED_ITEM ( 'NONE', ( #74 ), #161 ) ;
#95 = COLOUR_RGB ( '',0.2980392156862745057, 0.2980392156862745057, 0.2980392156862745057 ) ;
#96 = DIRECTION ( 'NONE',  ( 0.0000000000000000000, 0.0000000000000000000, 1.000000000000000000 ) ) ;
#97 = CARTESIAN_POINT ( 'NONE',  ( 0.2500000000000000000, 0.0000000000000000000, 0.0000000000000000000 ) ) ;
#98 = VERTEX_POINT ( 'NONE', #63 ) ;
#99 = EDGE_LOOP ( 'NONE', ( #1, #163, #115, #178 ) ) ;
#100 = CIRCLE ( 'NONE', #176, 0.09800000000000000377 ) ;
#101 = DIMENSIONAL_EXPONENTS ( 1.000000000000000000, 0.0000000000000000000, 0.0000000000000000000, 0.0000000000000000000, 0.0000000000000000000, 0.0000000000000000000, 0.0000000000000000000 ) ;
#102 = DIRECTION ( 'NONE',  ( 0.0000000000000000000, 0.0000000000000000000, -1.000000000000000000 ) ) ;
#103 = APPLICATION_CONTEXT ( 'automotive_design' ) ;
#104 =( GEOMETRIC_REPRESENTATION_CONTEXT ( 3 ) GLOBAL_UNCERTAINTY_ASSIGNED_CONTEXT ( ( #177 ) ) GLOBAL_UNIT_ASSIGNED_CONTEXT ( ( #53, #69, #141 ) ) REPRESENTATION_CONTEXT ( 'NONE', 'WORKASPACE' ) );
#105 = PRODUCT_CONTEXT ( 'NONE', #103, 'mechanical' ) ;
#106 = CIRCLE ( 'NONE', #183, 0.1870000000000000551 ) ;
#107 = PRESENTATION_LAYER_ASSIGNMENT (  '', '', ( #175 ) ) ;
#108 = VERTEX_POINT ( 'NONE', #30 ) ;
#109 = ADVANCED_BREP_SHAPE_REPRESENTATION ( 'WCP-0202 Rev1', ( #161, #122 ), #104 ) ;
#110 =( GEOMETRIC_REPRESENTATION_CONTEXT ( 3 ) GLOBAL_UNCERTAINTY_ASSIGNED_CONTEXT ( ( #195 ) ) GLOBAL_UNIT_ASSIGNED_CONTEXT ( ( #153, #34, #37 ) ) REPRESENTATION_CONTEXT ( 'NONE', 'WORKASPACE' ) );
#111 = DIRECTION ( 'NONE',  ( 1.000000000000000000, 0.0000000000000000000, 0.0000000000000000000 ) ) ;
#112 = CARTESIAN_POINT ( 'NONE',  ( 0.2500000000000000000, 0.0000000000000000000, 0.0000000000000000000 ) ) ;
#113 = VERTEX_POINT ( 'NONE', #29 ) ;
#114 = EDGE_CURVE ( 'NONE', #146, #108, #52, .T. ) ;
#115 = ORIENTED_EDGE ( 'NONE', *, *, #179, .F. ) ;
#116 = CARTESIAN_POINT ( 'NONE',  ( 0.2500000000000000000, 0.0000000000000000000, 0.0000000000000000000 ) ) ;
#117 =( NAMED_UNIT ( * ) SI_UNIT ( $, .STERADIAN. ) SOLID_ANGLE_UNIT ( ) );
#118 = DIMENSIONAL_EXPONENTS ( 1.000000000000000000, 0.0000000000000000000, 0.0000000000000000000, 0.0000000000000000000, 0.0000000000000000000, 0.0000000000000000000, 0.0000000000000000000 ) ;
#119 = CARTESIAN_POINT ( 'NONE',  ( -0.2500000000000000000, 0.0000000000000000000, 0.0000000000000000000 ) ) ;
#120 = DIRECTION ( 'NONE',  ( 0.0000000000000000000, 0.0000000000000000000, -1.000000000000000000 ) ) ;
#121 =( LENGTH_UNIT ( ) NAMED_UNIT ( * ) SI_UNIT ( $, .METRE. ) );
#122 = AXIS2_PLACEMENT_3D ( 'NONE', #84, #157, #82 ) ;
#123 = ORIENTED_EDGE ( 'NONE', *, *, #40, .T. ) ;
#124 = CLOSED_SHELL ( 'NONE', ( #138, #68, #81, #12, #93, #168 ) ) ;
#125 = MECHANICAL_DESIGN_GEOMETRIC_PRESENTATION_REPRESENTATION (  '', ( #94 ), #47 ) ;
#126 = EDGE_CURVE ( 'NONE', #113, #135, #89, .T. ) ;
#127 = ORIENTED_EDGE ( 'NONE', *, *, #28, .F. ) ;
#128 = LINE ( 'NONE', #170, #160 ) ;
#129 = CYLINDRICAL_SURFACE ( 'NONE', #85, 0.1870000000000000551 ) ;
#130 = DIRECTION ( 'NONE',  ( -1.000000000000000000, -0.0000000000000000000, -0.0000000000000000000 ) ) ;
#131 = DIRECTION ( 'NONE',  ( 0.0000000000000000000, 0.0000000000000000000, 1.000000000000000000 ) ) ;
#132 = PRODUCT_RELATED_PRODUCT_CATEGORY ( 'part', '', ( #56 ) ) ;
#133 = DIRECTION ( 'NONE',  ( 0.0000000000000000000, 0.0000000000000000000, -1.000000000000000000 ) ) ;
#134 = DIRECTION ( 'NONE',  ( -1.000000000000000000, -0.0000000000000000000, -0.0000000000000000000 ) ) ;
#135 = VERTEX_POINT ( 'NONE', #167 ) ;
#136 = CARTESIAN_POINT ( 'NONE',  ( -0.2500000000000000000, 0.0000000000000000000, 0.0000000000000000000 ) ) ;
#137 = CYLINDRICAL_SURFACE ( 'NONE', #142, 0.09800000000000000377 ) ;
#138 = ADVANCED_FACE ( 'NONE', ( #38 ), #137, .F. ) ;
#139 =( NAMED_UNIT ( * ) PLANE_ANGLE_UNIT ( ) SI_UNIT ( $, .RADIAN. ) );
#140 = SURFACE_SIDE_STYLE ('',( #3 ) ) ;
#141 =( NAMED_UNIT ( * ) SI_UNIT ( $, .STERADIAN. ) SOLID_ANGLE_UNIT ( ) );
#142 = AXIS2_PLACEMENT_3D ( 'NONE', #112, #151, #96 ) ;
#143 = PRESENTATION_STYLE_ASSIGNMENT (( #35 ) ) ;
#144 = VECTOR ( 'NONE', #77, 39.37007874015748143 ) ;
#145 = CIRCLE ( 'NONE', #62, 0.1870000000000000551 ) ;
#146 = VERTEX_POINT ( 'NONE', #92 ) ;
#147 = DIRECTION ( 'NONE',  ( 1.000000000000000000, 0.0000000000000000000, 0.0000000000000000000 ) ) ;
#148 = CARTESIAN_POINT ( 'NONE',  ( -0.2500000000000000000, 0.0000000000000000000, 0.0000000000000000000 ) ) ;
#149 = DIRECTION ( 'NONE',  ( 0.0000000000000000000, 0.0000000000000000000, -1.000000000000000000 ) ) ;
#150 = AXIS2_PLACEMENT_3D ( 'NONE', #208, #198, #149 ) ;
#151 = DIRECTION ( 'NONE',  ( -1.000000000000000000, -0.0000000000000000000, -0.0000000000000000000 ) ) ;
#152 = LENGTH_MEASURE_WITH_UNIT ( LENGTH_MEASURE( 0.02539999999999999897 ), #172 );
#153 =( CONVERSION_BASED_UNIT ( 'INCH', #152 ) LENGTH_UNIT ( ) NAMED_UNIT ( #101 ) );
#154 = DIRECTION ( 'NONE',  ( 1.000000000000000000, 0.0000000000000000000, 0.0000000000000000000 ) ) ;
#155 = FILL_AREA_STYLE_COLOUR ( '', #95 ) ;
#156 = ORIENTED_EDGE ( 'NONE', *, *, #180, .F. ) ;
#157 = DIRECTION ( 'NONE',  ( 0.0000000000000000000, 0.0000000000000000000, 1.000000000000000000 ) ) ;
#158 = CARTESIAN_POINT ( 'NONE',  ( 0.2500000000000000000, 0.0000000000000000000, 0.0000000000000000000 ) ) ;
#159 = EDGE_LOOP ( 'NONE', ( #196, #181 ) ) ;
#160 = VECTOR ( 'NONE', #130, 39.37007874015748143 ) ;
#161 = MANIFOLD_SOLID_BREP ( 'Boss-Extrude1', #124 ) ;
#162 = LINE ( 'NONE', #169, #144 ) ;
#163 = ORIENTED_EDGE ( 'NONE', *, *, #24, .T. ) ;
#164 = PRESENTATION_LAYER_ASSIGNMENT (  '', '', ( #94 ) ) ;
#165 = AXIS2_PLACEMENT_3D ( 'NONE', #97, #66, #210 ) ;
#166 = CARTESIAN_POINT ( 'NONE',  ( 0.2500000000000000000, 0.0000000000000000000, 0.0000000000000000000 ) ) ;
#167 = CARTESIAN_POINT ( 'NONE',  ( 0.2500000000000000000, 2.290089514405551281E-17, -0.1870000000000000551 ) ) ;
#168 = ADVANCED_FACE ( 'NONE', ( #46 ), #197, .F. ) ;
#169 = CARTESIAN_POINT ( 'NONE',  ( 0.2500000000000000000, 2.290089514405551281E-17, -0.1870000000000000551 ) ) ;
#170 = CARTESIAN_POINT ( 'NONE',  ( 0.2500000000000000000, 1.200153863164406105E-17, -0.09800000000000000377 ) ) ;
#171 = DIRECTION ( 'NONE',  ( -1.000000000000000000, -0.0000000000000000000, -0.0000000000000000000 ) ) ;
#172 =( LENGTH_UNIT ( ) NAMED_UNIT ( * ) SI_UNIT ( $, .METRE. ) );
#173 = PRODUCT_DEFINITION_CONTEXT ( 'detailed design', #188, 'design' ) ;
#174 = FACE_BOUND ( 'NONE', #159, .T. ) ;
#175 = STYLED_ITEM ( 'NONE', ( #143 ), #109 ) ;
#176 = AXIS2_PLACEMENT_3D ( 'NONE', #21, #58, #17 ) ;
#177 = UNCERTAINTY_MEASURE_WITH_UNIT (LENGTH_MEASURE( 1.000000000000000082E-05 ), #53, 'distance_accuracy_value', 'NONE');
#178 = ORIENTED_EDGE ( 'NONE', *, *, #40, .F. ) ;
#179 = EDGE_CURVE ( 'NONE', #214, #191, #32, .T. ) ;
#180 = EDGE_CURVE ( 'NONE', #108, #146, #145, .T. ) ;
#181 = ORIENTED_EDGE ( 'NONE', *, *, #57, .F. ) ;
#182 = LENGTH_MEASURE_WITH_UNIT ( LENGTH_MEASURE( 0.02539999999999999897 ), #121 );
#183 = AXIS2_PLACEMENT_3D ( 'NONE', #158, #16, #221 ) ;
#184 = DIRECTION ( 'NONE',  ( 0.0000000000000000000, 0.0000000000000000000, 1.000000000000000000 ) ) ;
#185 = DIMENSIONAL_EXPONENTS ( 1.000000000000000000, 0.0000000000000000000, 0.0000000000000000000, 0.0000000000000000000, 0.0000000000000000000, 0.0000000000000000000, 0.0000000000000000000 ) ;
#186 = CARTESIAN_POINT ( 'NONE',  ( 0.2500000000000000000, 0.0000000000000000000, 0.1870000000000000551 ) ) ;
#187 = DIRECTION ( 'NONE',  ( -1.000000000000000000, -0.0000000000000000000, -0.0000000000000000000 ) ) ;
#188 = APPLICATION_CONTEXT ( 'automotive_design' ) ;
#189 = AXIS2_PLACEMENT_3D ( 'NONE', #166, #27, #184 ) ;
#190 = ORIENTED_EDGE ( 'NONE', *, *, #57, .T. ) ;
#191 = VERTEX_POINT ( 'NONE', #215 ) ;
#192 = ORIENTED_EDGE ( 'NONE', *, *, #204, .F. ) ;
#193 = PRODUCT_DEFINITION ( 'UNKNOWN', '', #79, #173 ) ;
#194 = EDGE_CURVE ( 'NONE', #98, #201, #100, .T. ) ;
#195 = UNCERTAINTY_MEASURE_WITH_UNIT (LENGTH_MEASURE( 1.000000000000000082E-05 ), #153, 'distance_accuracy_value', 'NONE');
#196 = ORIENTED_EDGE ( 'NONE', *, *, #194, .F. ) ;
#197 = CYLINDRICAL_SURFACE ( 'NONE', #216, 0.09800000000000000377 ) ;
#198 = DIRECTION ( 'NONE',  ( 1.000000000000000000, 0.0000000000000000000, 0.0000000000000000000 ) ) ;
#199 = SURFACE_SIDE_STYLE ('',( #223 ) ) ;
#200 = SURFACE_STYLE_USAGE ( .BOTH. , #199 ) ;
#201 = VERTEX_POINT ( 'NONE', #70 ) ;
#202 = PRODUCT_DEFINITION_SHAPE ( 'NONE', 'NONE',  #193 ) ;
#203 = AXIS2_PLACEMENT_3D ( 'NONE', #148, #147, #48 ) ;
#204 = EDGE_CURVE ( 'NONE', #113, #108, #217, .T. ) ;
#205 = EDGE_LOOP ( 'NONE', ( #19, #91 ) ) ;
#206 = EDGE_CURVE ( 'NONE', #135, #113, #106, .T. ) ;
#207 = COLOUR_RGB ( '',0.2980392156862745057, 0.2980392156862745057, 0.2980392156862745057 ) ;
#208 = CARTESIAN_POINT ( 'NONE',  ( 0.2500000000000000000, 0.0000000000000000000, 0.0000000000000000000 ) ) ;
#209 = DIRECTION ( 'NONE',  ( 0.0000000000000000000, 0.0000000000000000000, -1.000000000000000000 ) ) ;
#210 = DIRECTION ( 'NONE',  ( 0.0000000000000000000, 0.0000000000000000000, -1.000000000000000000 ) ) ;
#211 = CARTESIAN_POINT ( 'NONE',  ( 0.2500000000000000000, 0.0000000000000000000, 0.09800000000000000377 ) ) ;
#212 = AXIS2_PLACEMENT_3D ( 'NONE', #45, #13, #209 ) ;
#213 =( CONVERSION_BASED_UNIT ( 'INCH', #182 ) LENGTH_UNIT ( ) NAMED_UNIT ( #185 ) );
#214 = VERTEX_POINT ( 'NONE', #20 ) ;
#215 = CARTESIAN_POINT ( 'NONE',  ( -0.2500000000000000000, 1.200153863164406105E-17, -0.09800000000000000377 ) ) ;
#216 = AXIS2_PLACEMENT_3D ( 'NONE', #218, #187, #220 ) ;
#217 = LINE ( 'NONE', #186, #88 ) ;
#218 = CARTESIAN_POINT ( 'NONE',  ( 0.2500000000000000000, 0.0000000000000000000, 0.0000000000000000000 ) ) ;
#219 = UNCERTAINTY_MEASURE_WITH_UNIT (LENGTH_MEASURE( 1.000000000000000082E-05 ), #213, 'distance_accuracy_value', 'NONE');
#220 = DIRECTION ( 'NONE',  ( 0.0000000000000000000, 0.0000000000000000000, 1.000000000000000000 ) ) ;
#221 = DIRECTION ( 'NONE',  ( 0.0000000000000000000, 0.0000000000000000000, -1.000000000000000000 ) ) ;
#222 = ORIENTED_EDGE ( 'NONE', *, *, #24, .F. ) ;
#223 = SURFACE_STYLE_FILL_AREA ( #78 ) ;
ENDSEC;
END-ISO-10303-21;
