ISO-10303-21;
HEADER;
FILE_DESCRIPTION (( 'STEP AP214' ),
    '1' );
FILE_NAME ('WCP-0198.step',
    '2022-01-07T22:50:58',
    ( '' ),
    ( '' ),
    'SwSTEP 2.0',
    'SolidWorks 2020',
    '' );
FILE_SCHEMA (( 'AUTOMOTIVE_DESIGN' ));
ENDSEC;

DATA;
#1 = LENGTH_MEASURE_WITH_UNIT ( LENGTH_MEASURE( 0.02539999999999999897 ), #50 );
#2 = ORIENTED_EDGE ( 'NONE', *, *, #71, .F. ) ;
#3 = CIRCLE ( 'NONE', #130, 0.1250000000000000000 ) ;
#4 = COLOUR_RGB ( '',0.8666666666666666963, 0.9098039215686274384, 1.000000000000000000 ) ;
#5 = EDGE_LOOP ( 'NONE', ( #211, #15, #171, #35 ) ) ;
#6 = FACE_OUTER_BOUND ( 'NONE', #119, .T. ) ;
#7 = CYLINDRICAL_SURFACE ( 'NONE', #159, 0.1250000000000000000 ) ;
#8 = SURFACE_STYLE_USAGE ( .BOTH. , #181 ) ;
#9 = DIRECTION ( 'NONE',  ( 0.000000000000000000, 0.000000000000000000, -1.000000000000000000 ) ) ;
#10 =( GEOMETRIC_REPRESENTATION_CONTEXT ( 3 ) GLOBAL_UNCERTAINTY_ASSIGNED_CONTEXT ( ( #88 ) ) GLOBAL_UNIT_ASSIGNED_CONTEXT ( ( #18, #48, #155 ) ) REPRESENTATION_CONTEXT ( 'NONE', 'WORKASPACE' ) );
#11 = FILL_AREA_STYLE_COLOUR ( '', #150 ) ;
#12 = DIRECTION ( 'NONE',  ( -0.000000000000000000, -1.000000000000000000, -0.000000000000000000 ) ) ;
#13 = LENGTH_MEASURE_WITH_UNIT ( LENGTH_MEASURE( 0.02539999999999999897 ), #62 );
#14 = DIRECTION ( 'NONE',  ( 0.000000000000000000, 1.000000000000000000, 0.000000000000000000 ) ) ;
#15 = ORIENTED_EDGE ( 'NONE', *, *, #106, .T. ) ;
#16 = PRODUCT_CONTEXT ( 'NONE', #148, 'mechanical' ) ;
#17 = ORIENTED_EDGE ( 'NONE', *, *, #167, .T. ) ;
#18 =( CONVERSION_BASED_UNIT ( 'INCH', #1 ) LENGTH_UNIT ( ) NAMED_UNIT ( #84 ) );
#19 = EDGE_LOOP ( 'NONE', ( #116, #176, #152, #192 ) ) ;
#20 = ORIENTED_EDGE ( 'NONE', *, *, #223, .T. ) ;
#21 = MANIFOLD_SOLID_BREP ( 'Boss-Extrude1', #103 ) ;
#22 = LENGTH_MEASURE_WITH_UNIT ( LENGTH_MEASURE( 0.02539999999999999897 ), #40 );
#23 = LINE ( 'NONE', #87, #200 ) ;
#24 = DIRECTION ( 'NONE',  ( -0.000000000000000000, -1.000000000000000000, -0.000000000000000000 ) ) ;
#25 =( CONVERSION_BASED_UNIT ( 'INCH', #22 ) LENGTH_UNIT ( ) NAMED_UNIT ( #177 ) );
#26 = DIRECTION ( 'NONE',  ( 0.000000000000000000, 0.000000000000000000, -1.000000000000000000 ) ) ;
#27 = VECTOR ( 'NONE', #94, 39.37007874015748143 ) ;
#28 = CARTESIAN_POINT ( 'NONE',  ( 0.000000000000000000, 0.01574803149606299191, 0.000000000000000000 ) ) ;
#29 = ADVANCED_BREP_SHAPE_REPRESENTATION ( 'WCP-0198', ( #21, #133 ), #173 ) ;
#30 = CARTESIAN_POINT ( 'NONE',  ( 0.000000000000000000, 0.01574803149606299191, 0.000000000000000000 ) ) ;
#31 = EDGE_CURVE ( 'NONE', #49, #82, #126, .T. ) ;
#32 = STYLED_ITEM ( 'NONE', ( #175 ), #29 ) ;
#33 = ORIENTED_EDGE ( 'NONE', *, *, #154, .T. ) ;
#34 = ORIENTED_EDGE ( 'NONE', *, *, #198, .F. ) ;
#35 = ORIENTED_EDGE ( 'NONE', *, *, #79, .F. ) ;
#36 = ADVANCED_FACE ( 'NONE', ( #6, #140 ), #142, .F. ) ;
#37 = DIRECTION ( 'NONE',  ( 0.000000000000000000, 1.000000000000000000, 0.000000000000000000 ) ) ;
#38 = UNCERTAINTY_MEASURE_WITH_UNIT (LENGTH_MEASURE( 1.000000000000000082E-05 ), #42, 'distance_accuracy_value', 'NONE');
#39 = PRESENTATION_STYLE_ASSIGNMENT (( #8 ) ) ;
#40 =( LENGTH_UNIT ( ) NAMED_UNIT ( * ) SI_UNIT ( $, .METRE. ) );
#41 = PRODUCT_DEFINITION_FORMATION_WITH_SPECIFIED_SOURCE ( 'ANY', '', #90, .NOT_KNOWN. ) ;
#42 =( CONVERSION_BASED_UNIT ( 'INCH', #13 ) LENGTH_UNIT ( ) NAMED_UNIT ( #63 ) );
#43 = APPLICATION_PROTOCOL_DEFINITION ( 'draft international standard', 'automotive_design', 1998, #148 ) ;
#44 = DIRECTION ( 'NONE',  ( 0.000000000000000000, 0.000000000000000000, 1.000000000000000000 ) ) ;
#45 = CARTESIAN_POINT ( 'NONE',  ( 0.000000000000000000, 0.01574803149606299191, 0.000000000000000000 ) ) ;
#46 = ADVANCED_FACE ( 'NONE', ( #162 ), #7, .F. ) ;
#47 = DIRECTION ( 'NONE',  ( 0.000000000000000000, 0.000000000000000000, 1.000000000000000000 ) ) ;
#48 =( NAMED_UNIT ( * ) PLANE_ANGLE_UNIT ( ) SI_UNIT ( $, .RADIAN. ) );
#49 = VERTEX_POINT ( 'NONE', #86 ) ;
#50 =( LENGTH_UNIT ( ) NAMED_UNIT ( * ) SI_UNIT ( $, .METRE. ) );
#51 = VERTEX_POINT ( 'NONE', #156 ) ;
#52 = VERTEX_POINT ( 'NONE', #197 ) ;
#53 = AXIS2_PLACEMENT_3D ( 'NONE', #143, #122, #139 ) ;
#54 = CARTESIAN_POINT ( 'NONE',  ( 1.530808498934191509E-17, -0.01574803149606299191, 0.1250000000000000000 ) ) ;
#55 = PRESENTATION_LAYER_ASSIGNMENT (  '', '', ( #32 ) ) ;
#56 = FACE_BOUND ( 'NONE', #117, .T. ) ;
#57 = DIRECTION ( 'NONE',  ( -0.000000000000000000, -1.000000000000000000, -0.000000000000000000 ) ) ;
#58 = DIRECTION ( 'NONE',  ( 0.000000000000000000, 1.000000000000000000, 0.000000000000000000 ) ) ;
#59 = SURFACE_STYLE_FILL_AREA ( #220 ) ;
#60 = DIRECTION ( 'NONE',  ( -0.000000000000000000, -1.000000000000000000, -0.000000000000000000 ) ) ;
#61 =( GEOMETRIC_REPRESENTATION_CONTEXT ( 3 ) GLOBAL_UNCERTAINTY_ASSIGNED_CONTEXT ( ( #174 ) ) GLOBAL_UNIT_ASSIGNED_CONTEXT ( ( #25, #109, #68 ) ) REPRESENTATION_CONTEXT ( 'NONE', 'WORKASPACE' ) );
#62 =( LENGTH_UNIT ( ) NAMED_UNIT ( * ) SI_UNIT ( $, .METRE. ) );
#63 = DIMENSIONAL_EXPONENTS ( 1.000000000000000000, 0.000000000000000000, 0.000000000000000000, 0.000000000000000000, 0.000000000000000000, 0.000000000000000000, 0.000000000000000000 ) ;
#64 = VERTEX_POINT ( 'NONE', #179 ) ;
#65 = ORIENTED_EDGE ( 'NONE', *, *, #167, .F. ) ;
#66 = AXIS2_PLACEMENT_3D ( 'NONE', #180, #58, #107 ) ;
#67 = EDGE_LOOP ( 'NONE', ( #20, #104 ) ) ;
#68 =( NAMED_UNIT ( * ) SI_UNIT ( $, .STERADIAN. ) SOLID_ANGLE_UNIT ( ) );
#69 = PLANE ( 'NONE',  #215 ) ;
#70 = CARTESIAN_POINT ( 'NONE',  ( 2.296212748401287726E-17, 0.01574803149606299191, 0.1875000000000000278 ) ) ;
#71 = EDGE_CURVE ( 'NONE', #83, #52, #169, .T. ) ;
#72 = DIRECTION ( 'NONE',  ( 0.000000000000000000, 0.000000000000000000, -1.000000000000000000 ) ) ;
#73 = PRODUCT_DEFINITION_SHAPE ( 'NONE', 'NONE',  #172 ) ;
#74 = CARTESIAN_POINT ( 'NONE',  ( 0.000000000000000000, -0.01574803149606299191, 0.000000000000000000 ) ) ;
#75 = CARTESIAN_POINT ( 'NONE',  ( 0.000000000000000000, 0.01574803149606299191, 0.000000000000000000 ) ) ;
#76 = AXIS2_PLACEMENT_3D ( 'NONE', #45, #60, #26 ) ;
#77 =( NAMED_UNIT ( * ) PLANE_ANGLE_UNIT ( ) SI_UNIT ( $, .RADIAN. ) );
#78 = LINE ( 'NONE', #98, #27 ) ;
#79 = EDGE_CURVE ( 'NONE', #190, #52, #219, .T. ) ;
#80 = APPLICATION_PROTOCOL_DEFINITION ( 'draft international standard', 'automotive_design', 1998, #161 ) ;
#81 = AXIS2_PLACEMENT_3D ( 'NONE', #195, #37, #196 ) ;
#82 = VERTEX_POINT ( 'NONE', #70 ) ;
#83 = VERTEX_POINT ( 'NONE', #54 ) ;
#84 = DIMENSIONAL_EXPONENTS ( 1.000000000000000000, 0.000000000000000000, 0.000000000000000000, 0.000000000000000000, 0.000000000000000000, 0.000000000000000000, 0.000000000000000000 ) ;
#85 = AXIS2_PLACEMENT_3D ( 'NONE', #141, #111, #91 ) ;
#86 = CARTESIAN_POINT ( 'NONE',  ( 0.000000000000000000, 0.01574803149606299191, -0.1875000000000000278 ) ) ;
#87 = CARTESIAN_POINT ( 'NONE',  ( 1.530808498934191509E-17, 0.01574803149606299191, 0.1250000000000000000 ) ) ;
#88 = UNCERTAINTY_MEASURE_WITH_UNIT (LENGTH_MEASURE( 1.000000000000000082E-05 ), #18, 'distance_accuracy_value', 'NONE');
#89 = SURFACE_STYLE_FILL_AREA ( #157 ) ;
#90 = PRODUCT ( 'WCP-0198', 'WCP-0198', '', ( #16 ) ) ;
#91 = DIRECTION ( 'NONE',  ( 0.000000000000000000, -0.000000000000000000, 1.000000000000000000 ) ) ;
#92 = DIRECTION ( 'NONE',  ( 0.000000000000000000, 1.000000000000000000, 0.000000000000000000 ) ) ;
#93 = AXIS2_PLACEMENT_3D ( 'NONE', #30, #203, #189 ) ;
#94 = DIRECTION ( 'NONE',  ( -0.000000000000000000, -1.000000000000000000, -0.000000000000000000 ) ) ;
#95 = EDGE_CURVE ( 'NONE', #51, #217, #118, .T. ) ;
#96 = DIRECTION ( 'NONE',  ( -0.000000000000000000, -1.000000000000000000, -0.000000000000000000 ) ) ;
#97 = CYLINDRICAL_SURFACE ( 'NONE', #136, 0.1875000000000000278 ) ;
#98 = CARTESIAN_POINT ( 'NONE',  ( 0.000000000000000000, 0.01574803149606299191, -0.1875000000000000278 ) ) ;
#99 = ORIENTED_EDGE ( 'NONE', *, *, #31, .F. ) ;
#100 = SHAPE_DEFINITION_REPRESENTATION ( #73, #29 ) ;
#101 = AXIS2_PLACEMENT_3D ( 'NONE', #114, #186, #44 ) ;
#102 = ORIENTED_EDGE ( 'NONE', *, *, #198, .T. ) ;
#103 = CLOSED_SHELL ( 'NONE', ( #46, #221, #112, #36, #129, #182 ) ) ;
#104 = ORIENTED_EDGE ( 'NONE', *, *, #71, .T. ) ;
#105 = ORIENTED_EDGE ( 'NONE', *, *, #95, .F. ) ;
#106 = EDGE_CURVE ( 'NONE', #64, #83, #23, .T. ) ;
#107 = DIRECTION ( 'NONE',  ( 0.000000000000000000, 0.000000000000000000, 1.000000000000000000 ) ) ;
#108 = CARTESIAN_POINT ( 'NONE',  ( 0.000000000000000000, 0.01574803149606299191, -0.1250000000000000000 ) ) ;
#109 =( NAMED_UNIT ( * ) PLANE_ANGLE_UNIT ( ) SI_UNIT ( $, .RADIAN. ) );
#110 = VECTOR ( 'NONE', #96, 39.37007874015748143 ) ;
#111 = DIRECTION ( 'NONE',  ( 0.000000000000000000, 1.000000000000000000, 0.000000000000000000 ) ) ;
#112 = ADVANCED_FACE ( 'NONE', ( #158, #56 ), #69, .T. ) ;
#113 = MECHANICAL_DESIGN_GEOMETRIC_PRESENTATION_REPRESENTATION (  '', ( #134 ), #61 ) ;
#114 = CARTESIAN_POINT ( 'NONE',  ( 0.000000000000000000, 0.01574803149606299191, 0.000000000000000000 ) ) ;
#115 = DIRECTION ( 'NONE',  ( 0.000000000000000000, 0.000000000000000000, -1.000000000000000000 ) ) ;
#116 = ORIENTED_EDGE ( 'NONE', *, *, #154, .F. ) ;
#117 = EDGE_LOOP ( 'NONE', ( #127, #65 ) ) ;
#118 = CIRCLE ( 'NONE', #81, 0.1875000000000000278 ) ;
#119 = EDGE_LOOP ( 'NONE', ( #34, #105 ) ) ;
#120 = ORIENTED_EDGE ( 'NONE', *, *, #194, .F. ) ;
#121 = CARTESIAN_POINT ( 'NONE',  ( 0.000000000000000000, 0.01574803149606299191, 0.000000000000000000 ) ) ;
#122 = DIRECTION ( 'NONE',  ( 0.000000000000000000, 1.000000000000000000, 0.000000000000000000 ) ) ;
#123 = PRODUCT_RELATED_PRODUCT_CATEGORY ( 'part', '', ( #90 ) ) ;
#124 = DIRECTION ( 'NONE',  ( 0.000000000000000000, -0.000000000000000000, 1.000000000000000000 ) ) ;
#125 = CIRCLE ( 'NONE', #164, 0.1250000000000000000 ) ;
#126 = CIRCLE ( 'NONE', #66, 0.1875000000000000278 ) ;
#127 = ORIENTED_EDGE ( 'NONE', *, *, #213, .F. ) ;
#128 = CARTESIAN_POINT ( 'NONE',  ( 0.000000000000000000, -0.01574803149606299191, 0.000000000000000000 ) ) ;
#129 = ADVANCED_FACE ( 'NONE', ( #201 ), #170, .T. ) ;
#130 = AXIS2_PLACEMENT_3D ( 'NONE', #28, #206, #184 ) ;
#131 = FACE_OUTER_BOUND ( 'NONE', #19, .T. ) ;
#132 = SURFACE_SIDE_STYLE ('',( #59 ) ) ;
#133 = AXIS2_PLACEMENT_3D ( 'NONE', #151, #153, #191 ) ;
#134 = STYLED_ITEM ( 'NONE', ( #39 ), #21 ) ;
#135 = ORIENTED_EDGE ( 'NONE', *, *, #31, .T. ) ;
#136 = AXIS2_PLACEMENT_3D ( 'NONE', #75, #12, #9 ) ;
#137 = EDGE_LOOP ( 'NONE', ( #135, #33 ) ) ;
#138 = ORIENTED_EDGE ( 'NONE', *, *, #187, .T. ) ;
#139 = DIRECTION ( 'NONE',  ( 0.000000000000000000, 0.000000000000000000, 1.000000000000000000 ) ) ;
#140 = FACE_BOUND ( 'NONE', #67, .T. ) ;
#141 = CARTESIAN_POINT ( 'NONE',  ( 0.000000000000000000, -0.01574803149606299191, 0.000000000000000000 ) ) ;
#142 = PLANE ( 'NONE',  #85 ) ;
#143 = CARTESIAN_POINT ( 'NONE',  ( 0.000000000000000000, -0.01574803149606299191, 0.000000000000000000 ) ) ;
#144 = AXIS2_PLACEMENT_3D ( 'NONE', #128, #92, #47 ) ;
#145 = CARTESIAN_POINT ( 'NONE',  ( 0.000000000000000000, -0.01574803149606299191, -0.1875000000000000278 ) ) ;
#146 = DIRECTION ( 'NONE',  ( 0.000000000000000000, 0.000000000000000000, 1.000000000000000000 ) ) ;
#147 = CARTESIAN_POINT ( 'NONE',  ( 0.000000000000000000, 0.01574803149606299191, 0.000000000000000000 ) ) ;
#148 = APPLICATION_CONTEXT ( 'automotive_design' ) ;
#149 = FACE_OUTER_BOUND ( 'NONE', #199, .T. ) ;
#150 = COLOUR_RGB ( '',0.8666666666666666963, 0.9098039215686274384, 1.000000000000000000 ) ;
#151 = CARTESIAN_POINT ( 'NONE',  ( 0.000000000000000000, 0.000000000000000000, 0.000000000000000000 ) ) ;
#152 = ORIENTED_EDGE ( 'NONE', *, *, #95, .T. ) ;
#153 = DIRECTION ( 'NONE',  ( 0.000000000000000000, 0.000000000000000000, 1.000000000000000000 ) ) ;
#154 = EDGE_CURVE ( 'NONE', #82, #49, #210, .T. ) ;
#155 =( NAMED_UNIT ( * ) SI_UNIT ( $, .STERADIAN. ) SOLID_ANGLE_UNIT ( ) );
#156 = CARTESIAN_POINT ( 'NONE',  ( 2.296212748401287726E-17, -0.01574803149606299191, 0.1875000000000000278 ) ) ;
#157 = FILL_AREA_STYLE ('',( #160 ) ) ;
#158 = FACE_OUTER_BOUND ( 'NONE', #137, .T. ) ;
#159 = AXIS2_PLACEMENT_3D ( 'NONE', #214, #216, #72 ) ;
#160 = FILL_AREA_STYLE_COLOUR ( '', #4 ) ;
#161 = APPLICATION_CONTEXT ( 'automotive_design' ) ;
#162 = FACE_OUTER_BOUND ( 'NONE', #5, .T. ) ;
#163 = CARTESIAN_POINT ( 'NONE',  ( 0.000000000000000000, 0.01574803149606299191, -0.1250000000000000000 ) ) ;
#164 = AXIS2_PLACEMENT_3D ( 'NONE', #74, #14, #146 ) ;
#165 = PRESENTATION_LAYER_ASSIGNMENT (  '', '', ( #134 ) ) ;
#166 = DIRECTION ( 'NONE',  ( -0.000000000000000000, -1.000000000000000000, -0.000000000000000000 ) ) ;
#167 = EDGE_CURVE ( 'NONE', #64, #190, #3, .T. ) ;
#168 = CIRCLE ( 'NONE', #144, 0.1875000000000000278 ) ;
#169 = CIRCLE ( 'NONE', #53, 0.1250000000000000000 ) ;
#170 = CYLINDRICAL_SURFACE ( 'NONE', #76, 0.1875000000000000278 ) ;
#171 = ORIENTED_EDGE ( 'NONE', *, *, #223, .F. ) ;
#172 = PRODUCT_DEFINITION ( 'UNKNOWN', '', #41, #202 ) ;
#173 =( GEOMETRIC_REPRESENTATION_CONTEXT ( 3 ) GLOBAL_UNCERTAINTY_ASSIGNED_CONTEXT ( ( #38 ) ) GLOBAL_UNIT_ASSIGNED_CONTEXT ( ( #42, #77, #207 ) ) REPRESENTATION_CONTEXT ( 'NONE', 'WORKASPACE' ) );
#174 = UNCERTAINTY_MEASURE_WITH_UNIT (LENGTH_MEASURE( 1.000000000000000082E-05 ), #25, 'distance_accuracy_value', 'NONE');
#175 = PRESENTATION_STYLE_ASSIGNMENT (( #204 ) ) ;
#176 = ORIENTED_EDGE ( 'NONE', *, *, #194, .T. ) ;
#177 = DIMENSIONAL_EXPONENTS ( 1.000000000000000000, 0.000000000000000000, 0.000000000000000000, 0.000000000000000000, 0.000000000000000000, 0.000000000000000000, 0.000000000000000000 ) ;
#178 = EDGE_LOOP ( 'NONE', ( #120, #99, #138, #102 ) ) ;
#179 = CARTESIAN_POINT ( 'NONE',  ( 1.530808498934191509E-17, 0.01574803149606299191, 0.1250000000000000000 ) ) ;
#180 = CARTESIAN_POINT ( 'NONE',  ( 0.000000000000000000, 0.01574803149606299191, 0.000000000000000000 ) ) ;
#181 = SURFACE_SIDE_STYLE ('',( #89 ) ) ;
#182 = ADVANCED_FACE ( 'NONE', ( #149 ), #183, .F. ) ;
#183 = CYLINDRICAL_SURFACE ( 'NONE', #208, 0.1250000000000000000 ) ;
#184 = DIRECTION ( 'NONE',  ( 0.000000000000000000, 0.000000000000000000, 1.000000000000000000 ) ) ;
#185 = MECHANICAL_DESIGN_GEOMETRIC_PRESENTATION_REPRESENTATION (  '', ( #32 ), #10 ) ;
#186 = DIRECTION ( 'NONE',  ( 0.000000000000000000, 1.000000000000000000, 0.000000000000000000 ) ) ;
#187 = EDGE_CURVE ( 'NONE', #49, #217, #78, .T. ) ;
#188 = LINE ( 'NONE', #222, #110 ) ;
#189 = DIRECTION ( 'NONE',  ( 0.000000000000000000, 0.000000000000000000, 1.000000000000000000 ) ) ;
#190 = VERTEX_POINT ( 'NONE', #163 ) ;
#191 = DIRECTION ( 'NONE',  ( 1.000000000000000000, 0.000000000000000000, 0.000000000000000000 ) ) ;
#192 = ORIENTED_EDGE ( 'NONE', *, *, #187, .F. ) ;
#193 = CIRCLE ( 'NONE', #93, 0.1250000000000000000 ) ;
#194 = EDGE_CURVE ( 'NONE', #82, #51, #188, .T. ) ;
#195 = CARTESIAN_POINT ( 'NONE',  ( 0.000000000000000000, -0.01574803149606299191, 0.000000000000000000 ) ) ;
#196 = DIRECTION ( 'NONE',  ( 0.000000000000000000, 0.000000000000000000, 1.000000000000000000 ) ) ;
#197 = CARTESIAN_POINT ( 'NONE',  ( 0.000000000000000000, -0.01574803149606299191, -0.1250000000000000000 ) ) ;
#198 = EDGE_CURVE ( 'NONE', #217, #51, #168, .T. ) ;
#199 = EDGE_LOOP ( 'NONE', ( #209, #17, #212, #2 ) ) ;
#200 = VECTOR ( 'NONE', #24, 39.37007874015748143 ) ;
#201 = FACE_OUTER_BOUND ( 'NONE', #178, .T. ) ;
#202 = PRODUCT_DEFINITION_CONTEXT ( 'detailed design', #161, 'design' ) ;
#203 = DIRECTION ( 'NONE',  ( 0.000000000000000000, 1.000000000000000000, 0.000000000000000000 ) ) ;
#204 = SURFACE_STYLE_USAGE ( .BOTH. , #132 ) ;
#205 = VECTOR ( 'NONE', #57, 39.37007874015748143 ) ;
#206 = DIRECTION ( 'NONE',  ( 0.000000000000000000, 1.000000000000000000, 0.000000000000000000 ) ) ;
#207 =( NAMED_UNIT ( * ) SI_UNIT ( $, .STERADIAN. ) SOLID_ANGLE_UNIT ( ) );
#208 = AXIS2_PLACEMENT_3D ( 'NONE', #147, #166, #115 ) ;
#209 = ORIENTED_EDGE ( 'NONE', *, *, #106, .F. ) ;
#210 = CIRCLE ( 'NONE', #101, 0.1875000000000000278 ) ;
#211 = ORIENTED_EDGE ( 'NONE', *, *, #213, .T. ) ;
#212 = ORIENTED_EDGE ( 'NONE', *, *, #79, .T. ) ;
#213 = EDGE_CURVE ( 'NONE', #190, #64, #193, .T. ) ;
#214 = CARTESIAN_POINT ( 'NONE',  ( 0.000000000000000000, 0.01574803149606299191, 0.000000000000000000 ) ) ;
#215 = AXIS2_PLACEMENT_3D ( 'NONE', #121, #218, #124 ) ;
#216 = DIRECTION ( 'NONE',  ( -0.000000000000000000, -1.000000000000000000, -0.000000000000000000 ) ) ;
#217 = VERTEX_POINT ( 'NONE', #145 ) ;
#218 = DIRECTION ( 'NONE',  ( 0.000000000000000000, 1.000000000000000000, 0.000000000000000000 ) ) ;
#219 = LINE ( 'NONE', #108, #205 ) ;
#220 = FILL_AREA_STYLE ('',( #11 ) ) ;
#221 = ADVANCED_FACE ( 'NONE', ( #131 ), #97, .T. ) ;
#222 = CARTESIAN_POINT ( 'NONE',  ( 2.296212748401287726E-17, 0.01574803149606299191, 0.1875000000000000278 ) ) ;
#223 = EDGE_CURVE ( 'NONE', #52, #83, #125, .T. ) ;
ENDSEC;
END-ISO-10303-21;
