ISO-10303-21;
HEADER;
FILE_DESCRIPTION (( 'STEP AP214' ),
    '1' );
FILE_NAME ('WCP-0197.step',
    '2022-01-07T22:50:06',
    ( '' ),
    ( '' ),
    'SwSTEP 2.0',
    'SolidWorks 2020',
    '' );
FILE_SCHEMA (( 'AUTOMOTIVE_DESIGN' ));
ENDSEC;

DATA;
#1 = DIRECTION ( 'NONE',  ( 0.000000000000000000, 1.000000000000000000, 0.000000000000000000 ) ) ;
#2 = DIRECTION ( 'NONE',  ( 0.000000000000000000, -0.000000000000000000, 1.000000000000000000 ) ) ;
#3 = ADVANCED_FACE ( 'NONE', ( #94 ), #150, .T. ) ;
#4 = SHAPE_DEFINITION_REPRESENTATION ( #179, #222 ) ;
#5 = DIRECTION ( 'NONE',  ( 0.000000000000000000, 0.000000000000000000, 1.000000000000000000 ) ) ;
#6 = MECHANICAL_DESIGN_GEOMETRIC_PRESENTATION_REPRESENTATION (  '', ( #183 ), #19 ) ;
#7 = DIRECTION ( 'NONE',  ( -0.000000000000000000, -1.000000000000000000, -0.000000000000000000 ) ) ;
#8 = ORIENTED_EDGE ( 'NONE', *, *, #199, .T. ) ;
#9 = DIRECTION ( 'NONE',  ( 0.000000000000000000, 0.000000000000000000, -1.000000000000000000 ) ) ;
#10 = AXIS2_PLACEMENT_3D ( 'NONE', #172, #89, #148 ) ;
#11 = EDGE_LOOP ( 'NONE', ( #8, #154, #107, #177 ) ) ;
#12 = LINE ( 'NONE', #141, #21 ) ;
#13 = PRODUCT ( 'WCP-0197', 'WCP-0197', '', ( #55 ) ) ;
#14 = CARTESIAN_POINT ( 'NONE',  ( 0.000000000000000000, -0.01574803149606299191, 0.000000000000000000 ) ) ;
#15 = DIMENSIONAL_EXPONENTS ( 1.000000000000000000, 0.000000000000000000, 0.000000000000000000, 0.000000000000000000, 0.000000000000000000, 0.000000000000000000, 0.000000000000000000 ) ;
#16 = UNCERTAINTY_MEASURE_WITH_UNIT (LENGTH_MEASURE( 1.000000000000000082E-05 ), #219, 'distance_accuracy_value', 'NONE');
#17 = DIRECTION ( 'NONE',  ( 0.000000000000000000, 0.000000000000000000, 1.000000000000000000 ) ) ;
#18 = ORIENTED_EDGE ( 'NONE', *, *, #181, .T. ) ;
#19 =( GEOMETRIC_REPRESENTATION_CONTEXT ( 3 ) GLOBAL_UNCERTAINTY_ASSIGNED_CONTEXT ( ( #16 ) ) GLOBAL_UNIT_ASSIGNED_CONTEXT ( ( #219, #67, #33 ) ) REPRESENTATION_CONTEXT ( 'NONE', 'WORKASPACE' ) );
#20 = ORIENTED_EDGE ( 'NONE', *, *, #127, .T. ) ;
#21 = VECTOR ( 'NONE', #43, 39.37007874015748143 ) ;
#22 = AXIS2_PLACEMENT_3D ( 'NONE', #70, #1, #2 ) ;
#23 = ADVANCED_FACE ( 'NONE', ( #95 ), #27, .T. ) ;
#24 = VERTEX_POINT ( 'NONE', #137 ) ;
#25 = CARTESIAN_POINT ( 'NONE',  ( 0.000000000000000000, 0.01574803149606299191, -0.1875000000000000278 ) ) ;
#26 = CIRCLE ( 'NONE', #47, 0.09800000000000000377 ) ;
#27 = CYLINDRICAL_SURFACE ( 'NONE', #171, 0.1875000000000000278 ) ;
#28 = VERTEX_POINT ( 'NONE', #98 ) ;
#29 = FILL_AREA_STYLE_COLOUR ( '', #144 ) ;
#30 = LINE ( 'NONE', #146, #139 ) ;
#31 = APPLICATION_PROTOCOL_DEFINITION ( 'draft international standard', 'automotive_design', 1998, #101 ) ;
#32 =( LENGTH_UNIT ( ) NAMED_UNIT ( * ) SI_UNIT ( $, .METRE. ) );
#33 =( NAMED_UNIT ( * ) SI_UNIT ( $, .STERADIAN. ) SOLID_ANGLE_UNIT ( ) );
#34 = AXIS2_PLACEMENT_3D ( 'NONE', #40, #192, #5 ) ;
#35 = DIRECTION ( 'NONE',  ( 0.000000000000000000, 1.000000000000000000, 0.000000000000000000 ) ) ;
#36 = EDGE_CURVE ( 'NONE', #196, #48, #66, .T. ) ;
#37 = CLOSED_SHELL ( 'NONE', ( #209, #3, #223, #194, #23, #157 ) ) ;
#38 = EDGE_LOOP ( 'NONE', ( #20, #44 ) ) ;
#39 = DIRECTION ( 'NONE',  ( 0.000000000000000000, 1.000000000000000000, 0.000000000000000000 ) ) ;
#40 = CARTESIAN_POINT ( 'NONE',  ( 0.000000000000000000, -0.01574803149606299191, 0.000000000000000000 ) ) ;
#41 = ORIENTED_EDGE ( 'NONE', *, *, #75, .T. ) ;
#42 = EDGE_CURVE ( 'NONE', #122, #24, #220, .T. ) ;
#43 = DIRECTION ( 'NONE',  ( -0.000000000000000000, -1.000000000000000000, -0.000000000000000000 ) ) ;
#44 = ORIENTED_EDGE ( 'NONE', *, *, #36, .T. ) ;
#45 = EDGE_CURVE ( 'NONE', #48, #191, #82, .T. ) ;
#46 = ORIENTED_EDGE ( 'NONE', *, *, #36, .F. ) ;
#47 = AXIS2_PLACEMENT_3D ( 'NONE', #190, #39, #149 ) ;
#48 = VERTEX_POINT ( 'NONE', #78 ) ;
#49 = AXIS2_PLACEMENT_3D ( 'NONE', #132, #114, #159 ) ;
#50 =( CONVERSION_BASED_UNIT ( 'INCH', #165 ) LENGTH_UNIT ( ) NAMED_UNIT ( #54 ) );
#51 = CARTESIAN_POINT ( 'NONE',  ( 1.200153863164406105E-17, 0.01574803149606299191, 0.09800000000000000377 ) ) ;
#52 = FACE_BOUND ( 'NONE', #110, .T. ) ;
#53 = AXIS2_PLACEMENT_3D ( 'NONE', #126, #35, #93 ) ;
#54 = DIMENSIONAL_EXPONENTS ( 1.000000000000000000, 0.000000000000000000, 0.000000000000000000, 0.000000000000000000, 0.000000000000000000, 0.000000000000000000, 0.000000000000000000 ) ;
#55 = PRODUCT_CONTEXT ( 'NONE', #101, 'mechanical' ) ;
#56 = ORIENTED_EDGE ( 'NONE', *, *, #164, .T. ) ;
#57 = PLANE ( 'NONE',  #53 ) ;
#58 = ORIENTED_EDGE ( 'NONE', *, *, #181, .F. ) ;
#59 = SURFACE_SIDE_STYLE ('',( #142 ) ) ;
#60 = FILL_AREA_STYLE ('',( #81 ) ) ;
#61 = CARTESIAN_POINT ( 'NONE',  ( 0.000000000000000000, 0.01574803149606299191, 0.000000000000000000 ) ) ;
#62 = DIRECTION ( 'NONE',  ( 0.000000000000000000, 1.000000000000000000, 0.000000000000000000 ) ) ;
#63 = FACE_OUTER_BOUND ( 'NONE', #38, .T. ) ;
#64 = DIRECTION ( 'NONE',  ( 0.000000000000000000, 0.000000000000000000, 1.000000000000000000 ) ) ;
#65 =( NAMED_UNIT ( * ) SI_UNIT ( $, .STERADIAN. ) SOLID_ANGLE_UNIT ( ) );
#66 = CIRCLE ( 'NONE', #182, 0.1875000000000000278 ) ;
#67 =( NAMED_UNIT ( * ) PLANE_ANGLE_UNIT ( ) SI_UNIT ( $, .RADIAN. ) );
#68 = CARTESIAN_POINT ( 'NONE',  ( 0.000000000000000000, -0.01574803149606299191, 0.000000000000000000 ) ) ;
#69 = CIRCLE ( 'NONE', #87, 0.1875000000000000278 ) ;
#70 = CARTESIAN_POINT ( 'NONE',  ( 0.000000000000000000, 0.01574803149606299191, 0.000000000000000000 ) ) ;
#71 = UNCERTAINTY_MEASURE_WITH_UNIT (LENGTH_MEASURE( 1.000000000000000082E-05 ), #207, 'distance_accuracy_value', 'NONE');
#72 =( NAMED_UNIT ( * ) SI_UNIT ( $, .STERADIAN. ) SOLID_ANGLE_UNIT ( ) );
#73 = FACE_OUTER_BOUND ( 'NONE', #11, .T. ) ;
#74 = PRESENTATION_LAYER_ASSIGNMENT (  '', '', ( #96 ) ) ;
#75 = EDGE_CURVE ( 'NONE', #76, #122, #12, .T. ) ;
#76 = VERTEX_POINT ( 'NONE', #216 ) ;
#77 = CARTESIAN_POINT ( 'NONE',  ( 0.000000000000000000, 0.01574803149606299191, 0.000000000000000000 ) ) ;
#78 = CARTESIAN_POINT ( 'NONE',  ( 0.000000000000000000, 0.01574803149606299191, -0.1875000000000000278 ) ) ;
#79 = CIRCLE ( 'NONE', #221, 0.1875000000000000278 ) ;
#80 = DIRECTION ( 'NONE',  ( -0.000000000000000000, -1.000000000000000000, -0.000000000000000000 ) ) ;
#81 = FILL_AREA_STYLE_COLOUR ( '', #156 ) ;
#82 = LINE ( 'NONE', #25, #161 ) ;
#83 = AXIS2_PLACEMENT_3D ( 'NONE', #217, #197, #138 ) ;
#84 =( GEOMETRIC_REPRESENTATION_CONTEXT ( 3 ) GLOBAL_UNCERTAINTY_ASSIGNED_CONTEXT ( ( #71 ) ) GLOBAL_UNIT_ASSIGNED_CONTEXT ( ( #207, #108, #72 ) ) REPRESENTATION_CONTEXT ( 'NONE', 'WORKASPACE' ) );
#85 = DIRECTION ( 'NONE',  ( 0.000000000000000000, 1.000000000000000000, 0.000000000000000000 ) ) ;
#86 = FACE_OUTER_BOUND ( 'NONE', #195, .T. ) ;
#87 = AXIS2_PLACEMENT_3D ( 'NONE', #61, #62, #155 ) ;
#88 = ORIENTED_EDGE ( 'NONE', *, *, #188, .F. ) ;
#89 = DIRECTION ( 'NONE',  ( 0.000000000000000000, 0.000000000000000000, 1.000000000000000000 ) ) ;
#90 = PRODUCT_RELATED_PRODUCT_CATEGORY ( 'part', '', ( #13 ) ) ;
#91 = FACE_OUTER_BOUND ( 'NONE', #134, .T. ) ;
#92 = ORIENTED_EDGE ( 'NONE', *, *, #202, .F. ) ;
#93 = DIRECTION ( 'NONE',  ( 0.000000000000000000, -0.000000000000000000, 1.000000000000000000 ) ) ;
#94 = FACE_OUTER_BOUND ( 'NONE', #189, .T. ) ;
#95 = FACE_OUTER_BOUND ( 'NONE', #151, .T. ) ;
#96 = STYLED_ITEM ( 'NONE', ( #166 ), #222 ) ;
#97 = DIRECTION ( 'NONE',  ( -0.000000000000000000, -1.000000000000000000, -0.000000000000000000 ) ) ;
#98 = CARTESIAN_POINT ( 'NONE',  ( 2.296212748401287726E-17, -0.01574803149606299191, 0.1875000000000000278 ) ) ;
#99 = DIRECTION ( 'NONE',  ( -0.000000000000000000, -1.000000000000000000, -0.000000000000000000 ) ) ;
#100 = CARTESIAN_POINT ( 'NONE',  ( 0.000000000000000000, 0.01574803149606299191, 0.000000000000000000 ) ) ;
#101 = APPLICATION_CONTEXT ( 'automotive_design' ) ;
#102 = CIRCLE ( 'NONE', #34, 0.09800000000000000377 ) ;
#103 = MANIFOLD_SOLID_BREP ( 'Boss-Extrude1', #37 ) ;
#104 = SURFACE_STYLE_FILL_AREA ( #133 ) ;
#105 = ORIENTED_EDGE ( 'NONE', *, *, #153, .F. ) ;
#106 = CARTESIAN_POINT ( 'NONE',  ( 0.000000000000000000, 0.01574803149606299191, 0.000000000000000000 ) ) ;
#107 = ORIENTED_EDGE ( 'NONE', *, *, #42, .F. ) ;
#108 =( NAMED_UNIT ( * ) PLANE_ANGLE_UNIT ( ) SI_UNIT ( $, .RADIAN. ) );
#109 = DIRECTION ( 'NONE',  ( -0.000000000000000000, -1.000000000000000000, -0.000000000000000000 ) ) ;
#110 = EDGE_LOOP ( 'NONE', ( #198, #212 ) ) ;
#111 =( LENGTH_UNIT ( ) NAMED_UNIT ( * ) SI_UNIT ( $, .METRE. ) );
#112 = VERTEX_POINT ( 'NONE', #51 ) ;
#113 =( LENGTH_UNIT ( ) NAMED_UNIT ( * ) SI_UNIT ( $, .METRE. ) );
#114 = DIRECTION ( 'NONE',  ( -0.000000000000000000, -1.000000000000000000, -0.000000000000000000 ) ) ;
#115 = AXIS2_PLACEMENT_3D ( 'NONE', #100, #117, #17 ) ;
#116 = SURFACE_SIDE_STYLE ('',( #104 ) ) ;
#117 = DIRECTION ( 'NONE',  ( 0.000000000000000000, 1.000000000000000000, 0.000000000000000000 ) ) ;
#118 = UNCERTAINTY_MEASURE_WITH_UNIT (LENGTH_MEASURE( 1.000000000000000082E-05 ), #50, 'distance_accuracy_value', 'NONE');
#119 = AXIS2_PLACEMENT_3D ( 'NONE', #130, #109, #129 ) ;
#120 = DIRECTION ( 'NONE',  ( 0.000000000000000000, 1.000000000000000000, 0.000000000000000000 ) ) ;
#121 = AXIS2_PLACEMENT_3D ( 'NONE', #106, #7, #213 ) ;
#122 = VERTEX_POINT ( 'NONE', #163 ) ;
#123 = FACE_BOUND ( 'NONE', #193, .T. ) ;
#124 = APPLICATION_PROTOCOL_DEFINITION ( 'draft international standard', 'automotive_design', 1998, #168 ) ;
#125 = ORIENTED_EDGE ( 'NONE', *, *, #199, .F. ) ;
#126 = CARTESIAN_POINT ( 'NONE',  ( 0.000000000000000000, -0.01574803149606299191, 0.000000000000000000 ) ) ;
#127 = EDGE_CURVE ( 'NONE', #48, #196, #69, .T. ) ;
#128 = ORIENTED_EDGE ( 'NONE', *, *, #127, .F. ) ;
#129 = DIRECTION ( 'NONE',  ( 0.000000000000000000, 0.000000000000000000, -1.000000000000000000 ) ) ;
#130 = CARTESIAN_POINT ( 'NONE',  ( 0.000000000000000000, 0.01574803149606299191, 0.000000000000000000 ) ) ;
#131 = CARTESIAN_POINT ( 'NONE',  ( 1.200153863164406105E-17, 0.01574803149606299191, 0.09800000000000000377 ) ) ;
#132 = CARTESIAN_POINT ( 'NONE',  ( 0.000000000000000000, 0.01574803149606299191, 0.000000000000000000 ) ) ;
#133 = FILL_AREA_STYLE ('',( #29 ) ) ;
#134 = EDGE_LOOP ( 'NONE', ( #178, #58 ) ) ;
#135 = ORIENTED_EDGE ( 'NONE', *, *, #160, .T. ) ;
#136 = CYLINDRICAL_SURFACE ( 'NONE', #121, 0.09800000000000000377 ) ;
#137 = CARTESIAN_POINT ( 'NONE',  ( 1.200153863164406105E-17, -0.01574803149606299191, 0.09800000000000000377 ) ) ;
#138 = DIRECTION ( 'NONE',  ( 0.000000000000000000, 0.000000000000000000, 1.000000000000000000 ) ) ;
#139 = VECTOR ( 'NONE', #99, 39.37007874015748143 ) ;
#140 = AXIS2_PLACEMENT_3D ( 'NONE', #14, #85, #64 ) ;
#141 = CARTESIAN_POINT ( 'NONE',  ( 0.000000000000000000, 0.01574803149606299191, -0.09800000000000000377 ) ) ;
#142 = SURFACE_STYLE_FILL_AREA ( #60 ) ;
#143 = LENGTH_MEASURE_WITH_UNIT ( LENGTH_MEASURE( 0.02539999999999999897 ), #111 );
#144 = COLOUR_RGB ( '',0.8666666666666666963, 0.9098039215686274384, 1.000000000000000000 ) ;
#145 = LINE ( 'NONE', #131, #185 ) ;
#146 = CARTESIAN_POINT ( 'NONE',  ( 2.296212748401287726E-17, 0.01574803149606299191, 0.1875000000000000278 ) ) ;
#147 =( NAMED_UNIT ( * ) PLANE_ANGLE_UNIT ( ) SI_UNIT ( $, .RADIAN. ) );
#148 = DIRECTION ( 'NONE',  ( 1.000000000000000000, 0.000000000000000000, 0.000000000000000000 ) ) ;
#149 = DIRECTION ( 'NONE',  ( 0.000000000000000000, 0.000000000000000000, 1.000000000000000000 ) ) ;
#150 = CYLINDRICAL_SURFACE ( 'NONE', #119, 0.1875000000000000278 ) ;
#151 = EDGE_LOOP ( 'NONE', ( #176, #128, #186, #56 ) ) ;
#152 = DIRECTION ( 'NONE',  ( 0.000000000000000000, 1.000000000000000000, 0.000000000000000000 ) ) ;
#153 = EDGE_CURVE ( 'NONE', #112, #76, #215, .T. ) ;
#154 = ORIENTED_EDGE ( 'NONE', *, *, #188, .T. ) ;
#155 = DIRECTION ( 'NONE',  ( 0.000000000000000000, 0.000000000000000000, 1.000000000000000000 ) ) ;
#156 = COLOUR_RGB ( '',0.8666666666666666963, 0.9098039215686274384, 1.000000000000000000 ) ;
#157 = ADVANCED_FACE ( 'NONE', ( #86 ), #204, .F. ) ;
#158 = DIRECTION ( 'NONE',  ( 0.000000000000000000, 0.000000000000000000, 1.000000000000000000 ) ) ;
#159 = DIRECTION ( 'NONE',  ( 0.000000000000000000, 0.000000000000000000, -1.000000000000000000 ) ) ;
#160 = EDGE_CURVE ( 'NONE', #196, #28, #30, .T. ) ;
#161 = VECTOR ( 'NONE', #80, 39.37007874015748143 ) ;
#162 =( GEOMETRIC_REPRESENTATION_CONTEXT ( 3 ) GLOBAL_UNCERTAINTY_ASSIGNED_CONTEXT ( ( #118 ) ) GLOBAL_UNIT_ASSIGNED_CONTEXT ( ( #50, #147, #65 ) ) REPRESENTATION_CONTEXT ( 'NONE', 'WORKASPACE' ) );
#163 = CARTESIAN_POINT ( 'NONE',  ( 0.000000000000000000, -0.01574803149606299191, -0.09800000000000000377 ) ) ;
#164 = EDGE_CURVE ( 'NONE', #191, #28, #79, .T. ) ;
#165 = LENGTH_MEASURE_WITH_UNIT ( LENGTH_MEASURE( 0.02539999999999999897 ), #113 );
#166 = PRESENTATION_STYLE_ASSIGNMENT (( #180 ) ) ;
#167 = DIMENSIONAL_EXPONENTS ( 1.000000000000000000, 0.000000000000000000, 0.000000000000000000, 0.000000000000000000, 0.000000000000000000, 0.000000000000000000, 0.000000000000000000 ) ;
#168 = APPLICATION_CONTEXT ( 'automotive_design' ) ;
#169 = ORIENTED_EDGE ( 'NONE', *, *, #153, .T. ) ;
#170 = PRODUCT_DEFINITION ( 'UNKNOWN', '', #206, #184 ) ;
#171 = AXIS2_PLACEMENT_3D ( 'NONE', #77, #97, #9 ) ;
#172 = CARTESIAN_POINT ( 'NONE',  ( 0.000000000000000000, 0.000000000000000000, 0.000000000000000000 ) ) ;
#173 = MECHANICAL_DESIGN_GEOMETRIC_PRESENTATION_REPRESENTATION (  '', ( #96 ), #84 ) ;
#174 = SURFACE_STYLE_USAGE ( .BOTH. , #59 ) ;
#175 = CARTESIAN_POINT ( 'NONE',  ( 0.000000000000000000, 0.01574803149606299191, 0.000000000000000000 ) ) ;
#176 = ORIENTED_EDGE ( 'NONE', *, *, #160, .F. ) ;
#177 = ORIENTED_EDGE ( 'NONE', *, *, #75, .F. ) ;
#178 = ORIENTED_EDGE ( 'NONE', *, *, #164, .F. ) ;
#179 = PRODUCT_DEFINITION_SHAPE ( 'NONE', 'NONE',  #170 ) ;
#180 = SURFACE_STYLE_USAGE ( .BOTH. , #116 ) ;
#181 = EDGE_CURVE ( 'NONE', #28, #191, #201, .T. ) ;
#182 = AXIS2_PLACEMENT_3D ( 'NONE', #175, #152, #214 ) ;
#183 = STYLED_ITEM ( 'NONE', ( #218 ), #103 ) ;
#184 = PRODUCT_DEFINITION_CONTEXT ( 'detailed design', #168, 'design' ) ;
#185 = VECTOR ( 'NONE', #203, 39.37007874015748143 ) ;
#186 = ORIENTED_EDGE ( 'NONE', *, *, #45, .T. ) ;
#187 = CARTESIAN_POINT ( 'NONE',  ( 2.296212748401287726E-17, 0.01574803149606299191, 0.1875000000000000278 ) ) ;
#188 = EDGE_CURVE ( 'NONE', #112, #24, #145, .T. ) ;
#189 = EDGE_LOOP ( 'NONE', ( #46, #135, #18, #211 ) ) ;
#190 = CARTESIAN_POINT ( 'NONE',  ( 0.000000000000000000, 0.01574803149606299191, 0.000000000000000000 ) ) ;
#191 = VERTEX_POINT ( 'NONE', #208 ) ;
#192 = DIRECTION ( 'NONE',  ( 0.000000000000000000, 1.000000000000000000, 0.000000000000000000 ) ) ;
#193 = EDGE_LOOP ( 'NONE', ( #125, #105 ) ) ;
#194 = ADVANCED_FACE ( 'NONE', ( #91, #52 ), #57, .F. ) ;
#195 = EDGE_LOOP ( 'NONE', ( #88, #169, #41, #92 ) ) ;
#196 = VERTEX_POINT ( 'NONE', #187 ) ;
#197 = DIRECTION ( 'NONE',  ( 0.000000000000000000, 1.000000000000000000, 0.000000000000000000 ) ) ;
#198 = ORIENTED_EDGE ( 'NONE', *, *, #42, .T. ) ;
#199 = EDGE_CURVE ( 'NONE', #76, #112, #26, .T. ) ;
#200 = PLANE ( 'NONE',  #22 ) ;
#201 = CIRCLE ( 'NONE', #140, 0.1875000000000000278 ) ;
#202 = EDGE_CURVE ( 'NONE', #24, #122, #102, .T. ) ;
#203 = DIRECTION ( 'NONE',  ( -0.000000000000000000, -1.000000000000000000, -0.000000000000000000 ) ) ;
#204 = CYLINDRICAL_SURFACE ( 'NONE', #49, 0.09800000000000000377 ) ;
#205 = PRESENTATION_LAYER_ASSIGNMENT (  '', '', ( #183 ) ) ;
#206 = PRODUCT_DEFINITION_FORMATION_WITH_SPECIFIED_SOURCE ( 'ANY', '', #13, .NOT_KNOWN. ) ;
#207 =( CONVERSION_BASED_UNIT ( 'INCH', #210 ) LENGTH_UNIT ( ) NAMED_UNIT ( #15 ) );
#208 = CARTESIAN_POINT ( 'NONE',  ( 0.000000000000000000, -0.01574803149606299191, -0.1875000000000000278 ) ) ;
#209 = ADVANCED_FACE ( 'NONE', ( #73 ), #136, .F. ) ;
#210 = LENGTH_MEASURE_WITH_UNIT ( LENGTH_MEASURE( 0.02539999999999999897 ), #32 );
#211 = ORIENTED_EDGE ( 'NONE', *, *, #45, .F. ) ;
#212 = ORIENTED_EDGE ( 'NONE', *, *, #202, .T. ) ;
#213 = DIRECTION ( 'NONE',  ( 0.000000000000000000, 0.000000000000000000, -1.000000000000000000 ) ) ;
#214 = DIRECTION ( 'NONE',  ( 0.000000000000000000, 0.000000000000000000, 1.000000000000000000 ) ) ;
#215 = CIRCLE ( 'NONE', #115, 0.09800000000000000377 ) ;
#216 = CARTESIAN_POINT ( 'NONE',  ( 0.000000000000000000, 0.01574803149606299191, -0.09800000000000000377 ) ) ;
#217 = CARTESIAN_POINT ( 'NONE',  ( 0.000000000000000000, -0.01574803149606299191, 0.000000000000000000 ) ) ;
#218 = PRESENTATION_STYLE_ASSIGNMENT (( #174 ) ) ;
#219 =( CONVERSION_BASED_UNIT ( 'INCH', #143 ) LENGTH_UNIT ( ) NAMED_UNIT ( #167 ) );
#220 = CIRCLE ( 'NONE', #83, 0.09800000000000000377 ) ;
#221 = AXIS2_PLACEMENT_3D ( 'NONE', #68, #120, #158 ) ;
#222 = ADVANCED_BREP_SHAPE_REPRESENTATION ( 'WCP-0197', ( #103, #10 ), #162 ) ;
#223 = ADVANCED_FACE ( 'NONE', ( #63, #123 ), #200, .T. ) ;
ENDSEC;
END-ISO-10303-21;
