ISO-10303-21;
HEADER;
FILE_DESCRIPTION (( 'STEP AP214' ),
    '1' );
FILE_NAME ('WCP-0196 Rev1.step',
    '2023-12-27T21:22:04',
    ( '' ),
    ( '' ),
    'SwSTEP 2.0',
    'SolidWorks 2022',
    '' );
FILE_SCHEMA (( 'AUTOMOTIVE_DESIGN' ));
ENDSEC;

DATA;
#1 = APPLICATION_CONTEXT ( 'automotive_design' ) ;
#2 = EDGE_LOOP ( 'NONE', ( #10, #140, #24, #20 ) ) ;
#3 = UNCERTAINTY_MEASURE_WITH_UNIT (LENGTH_MEASURE( 1.000000000000000082E-05 ), #130, 'distance_accuracy_value', 'NONE');
#4 = CARTESIAN_POINT ( 'NONE',  ( 0.000000000000000000, 0.1250000000000000000, 0.000000000000000000 ) ) ;
#5 = DIRECTION ( 'NONE',  ( -1.000000000000000000, 0.000000000000000000, -0.000000000000000000 ) ) ;
#6 = ORIENTED_EDGE ( 'NONE', *, *, #198, .T. ) ;
#7 = LENGTH_MEASURE_WITH_UNIT ( LENGTH_MEASURE( 0.02539999999999999897 ), #109 );
#8 = DIRECTION ( 'NONE',  ( -1.365923996832131609E-16, -0.000000000000000000, -1.000000000000000000 ) ) ;
#9 = LINE ( 'NONE', #64, #191 ) ;
#10 = ORIENTED_EDGE ( 'NONE', *, *, #149, .T. ) ;
#11 = EDGE_CURVE ( 'NONE', #58, #60, #30, .T. ) ;
#12 = VECTOR ( 'NONE', #139, 39.37007874015748143 ) ;
#13 = MECHANICAL_DESIGN_GEOMETRIC_PRESENTATION_REPRESENTATION (  '', ( #66 ), #46 ) ;
#14 = CARTESIAN_POINT ( 'NONE',  ( 0.000000000000000000, 0.000000000000000000, 0.000000000000000000 ) ) ;
#15 = PRESENTATION_LAYER_ASSIGNMENT (  '', '', ( #66 ) ) ;
#16 = DIRECTION ( 'NONE',  ( 9.106159978880878627E-17, 0.000000000000000000, 1.000000000000000000 ) ) ;
#17 = SURFACE_STYLE_USAGE ( .BOTH. , #35 ) ;
#18 = PLANE ( 'NONE',  #70 ) ;
#19 = LINE ( 'NONE', #110, #181 ) ;
#20 = ORIENTED_EDGE ( 'NONE', *, *, #117, .T. ) ;
#21 = CARTESIAN_POINT ( 'NONE',  ( 12.00000000000000355, -0.1250000000000000000, 24.00000000000000355 ) ) ;
#22 = ORIENTED_EDGE ( 'NONE', *, *, #122, .T. ) ;
#23 = DIRECTION ( 'NONE',  ( -0.000000000000000000, -1.000000000000000000, -0.000000000000000000 ) ) ;
#24 = ORIENTED_EDGE ( 'NONE', *, *, #182, .F. ) ;
#25 = FILL_AREA_STYLE ('',( #180 ) ) ;
#26 = AXIS2_PLACEMENT_3D ( 'NONE', #52, #37, #189 ) ;
#27 = SURFACE_SIDE_STYLE ('',( #132 ) ) ;
#28 = PRODUCT_RELATED_PRODUCT_CATEGORY ( 'part', '', ( #44 ) ) ;
#29 = DIMENSIONAL_EXPONENTS ( 1.000000000000000000, 0.000000000000000000, 0.000000000000000000, 0.000000000000000000, 0.000000000000000000, 0.000000000000000000, 0.000000000000000000 ) ;
#30 = LINE ( 'NONE', #135, #75 ) ;
#31 = PLANE ( 'NONE',  #82 ) ;
#32 = FILL_AREA_STYLE_COLOUR ( '', #178 ) ;
#33 = DIRECTION ( 'NONE',  ( 0.000000000000000000, -0.000000000000000000, -1.000000000000000000 ) ) ;
#34 = ADVANCED_FACE ( 'NONE', ( #199 ), #97, .F. ) ;
#35 = SURFACE_SIDE_STYLE ('',( #90 ) ) ;
#36 = VERTEX_POINT ( 'NONE', #51 ) ;
#37 = DIRECTION ( 'NONE',  ( 1.000000000000000000, 0.000000000000000000, -9.106159978880877395E-17 ) ) ;
#38 = EDGE_LOOP ( 'NONE', ( #208, #118, #93, #203 ) ) ;
#39 = EDGE_LOOP ( 'NONE', ( #159, #89, #205, #77 ) ) ;
#40 = ORIENTED_EDGE ( 'NONE', *, *, #100, .T. ) ;
#41 = SURFACE_STYLE_USAGE ( .BOTH. , #27 ) ;
#42 = VERTEX_POINT ( 'NONE', #201 ) ;
#43 = APPLICATION_PROTOCOL_DEFINITION ( 'draft international standard', 'automotive_design', 1998, #1 ) ;
#44 = PRODUCT ( 'WCP-0196 Rev1', 'WCP-0196 Rev1', '', ( #67 ) ) ;
#45 =( NAMED_UNIT ( * ) PLANE_ANGLE_UNIT ( ) SI_UNIT ( $, .RADIAN. ) );
#46 =( GEOMETRIC_REPRESENTATION_CONTEXT ( 3 ) GLOBAL_UNCERTAINTY_ASSIGNED_CONTEXT ( ( #3 ) ) GLOBAL_UNIT_ASSIGNED_CONTEXT ( ( #130, #173, #96 ) ) REPRESENTATION_CONTEXT ( 'NONE', 'WORKASPACE' ) );
#47 = SHAPE_DEFINITION_REPRESENTATION ( #151, #53 ) ;
#48 = VECTOR ( 'NONE', #23, 39.37007874015748143 ) ;
#49 = VECTOR ( 'NONE', #8, 39.37007874015748143 ) ;
#50 = ADVANCED_FACE ( 'NONE', ( #55 ), #171, .F. ) ;
#51 = CARTESIAN_POINT ( 'NONE',  ( -12.00000000000000355, -0.1250000000000000000, 24.00000000000000355 ) ) ;
#52 = CARTESIAN_POINT ( 'NONE',  ( -12.00000000000000711, 0.1250000000000000000, -24.00000000000000355 ) ) ;
#53 = ADVANCED_BREP_SHAPE_REPRESENTATION ( 'WCP-0196 Rev1', ( #153, #169 ), #161 ) ;
#54 = DIRECTION ( 'NONE',  ( 0.000000000000000000, -1.000000000000000000, 0.000000000000000000 ) ) ;
#55 = FACE_OUTER_BOUND ( 'NONE', #2, .T. ) ;
#56 = ORIENTED_EDGE ( 'NONE', *, *, #111, .T. ) ;
#57 = CARTESIAN_POINT ( 'NONE',  ( -12.00000000000000711, 0.1250000000000000000, -24.00000000000000355 ) ) ;
#58 = VERTEX_POINT ( 'NONE', #57 ) ;
#59 = VECTOR ( 'NONE', #119, 39.37007874015748143 ) ;
#60 = VERTEX_POINT ( 'NONE', #106 ) ;
#61 = EDGE_LOOP ( 'NONE', ( #56, #176, #114, #40 ) ) ;
#62 =( LENGTH_UNIT ( ) NAMED_UNIT ( * ) SI_UNIT ( $, .METRE. ) );
#63 = ADVANCED_FACE ( 'NONE', ( #158 ), #124, .F. ) ;
#64 = CARTESIAN_POINT ( 'NONE',  ( 12.00000000000000355, 0.1250000000000000000, 24.00000000000000355 ) ) ;
#65 = EDGE_CURVE ( 'NONE', #129, #174, #141, .T. ) ;
#66 = STYLED_ITEM ( 'NONE', ( #95 ), #53 ) ;
#67 = PRODUCT_CONTEXT ( 'NONE', #1, 'mechanical' ) ;
#68 = CARTESIAN_POINT ( 'NONE',  ( 12.00000000000000355, -0.1250000000000000000, 24.00000000000000355 ) ) ;
#69 = STYLED_ITEM ( 'NONE', ( #86 ), #153 ) ;
#70 = AXIS2_PLACEMENT_3D ( 'NONE', #134, #81, #207 ) ;
#71 = CARTESIAN_POINT ( 'NONE',  ( 11.99999999999999645, -0.1250000000000000000, -24.00000000000000355 ) ) ;
#72 = LINE ( 'NONE', #76, #12 ) ;
#73 = ORIENTED_EDGE ( 'NONE', *, *, #127, .T. ) ;
#74 =( CONVERSION_BASED_UNIT ( 'INCH', #7 ) LENGTH_UNIT ( ) NAMED_UNIT ( #120 ) );
#75 = VECTOR ( 'NONE', #101, 39.37007874015748143 ) ;
#76 = CARTESIAN_POINT ( 'NONE',  ( -12.00000000000000355, 0.1250000000000000000, 24.00000000000000355 ) ) ;
#77 = ORIENTED_EDGE ( 'NONE', *, *, #11, .T. ) ;
#78 =( LENGTH_UNIT ( ) NAMED_UNIT ( * ) SI_UNIT ( $, .METRE. ) );
#79 = ORIENTED_EDGE ( 'NONE', *, *, #100, .F. ) ;
#80 = VERTEX_POINT ( 'NONE', #105 ) ;
#81 = DIRECTION ( 'NONE',  ( 0.000000000000000000, -1.000000000000000000, 0.000000000000000000 ) ) ;
#82 = AXIS2_PLACEMENT_3D ( 'NONE', #4, #54, #33 ) ;
#83 = CARTESIAN_POINT ( 'NONE',  ( 11.99999999999999645, -0.1250000000000000000, -24.00000000000000355 ) ) ;
#84 = ADVANCED_FACE ( 'NONE', ( #108 ), #168, .F. ) ;
#85 = DIRECTION ( 'NONE',  ( 1.000000000000000000, 0.000000000000000000, -0.000000000000000000 ) ) ;
#86 = PRESENTATION_STYLE_ASSIGNMENT (( #17 ) ) ;
#87 = FACE_OUTER_BOUND ( 'NONE', #61, .T. ) ;
#88 = CARTESIAN_POINT ( 'NONE',  ( 11.99999999999999645, 0.1250000000000000000, -24.00000000000000355 ) ) ;
#89 = ORIENTED_EDGE ( 'NONE', *, *, #117, .F. ) ;
#90 = SURFACE_STYLE_FILL_AREA ( #166 ) ;
#91 = EDGE_LOOP ( 'NONE', ( #115, #143, #146, #22 ) ) ;
#92 =( NAMED_UNIT ( * ) SI_UNIT ( $, .STERADIAN. ) SOLID_ANGLE_UNIT ( ) );
#93 = ORIENTED_EDGE ( 'NONE', *, *, #65, .F. ) ;
#94 = CARTESIAN_POINT ( 'NONE',  ( -12.00000000000000711, -0.1250000000000000000, -24.00000000000000355 ) ) ;
#95 = PRESENTATION_STYLE_ASSIGNMENT (( #41 ) ) ;
#96 =( NAMED_UNIT ( * ) SI_UNIT ( $, .STERADIAN. ) SOLID_ANGLE_UNIT ( ) );
#97 = PLANE ( 'NONE',  #186 ) ;
#98 = MECHANICAL_DESIGN_GEOMETRIC_PRESENTATION_REPRESENTATION (  '', ( #69 ), #156 ) ;
#99 = VECTOR ( 'NONE', #147, 39.37007874015748143 ) ;
#100 = EDGE_CURVE ( 'NONE', #42, #58, #19, .T. ) ;
#101 = DIRECTION ( 'NONE',  ( -0.000000000000000000, -1.000000000000000000, -0.000000000000000000 ) ) ;
#102 = DIRECTION ( 'NONE',  ( 1.000000000000000000, 0.000000000000000000, 0.000000000000000000 ) ) ;
#103 = DIMENSIONAL_EXPONENTS ( 1.000000000000000000, 0.000000000000000000, 0.000000000000000000, 0.000000000000000000, 0.000000000000000000, 0.000000000000000000, 0.000000000000000000 ) ;
#104 = UNCERTAINTY_MEASURE_WITH_UNIT (LENGTH_MEASURE( 1.000000000000000082E-05 ), #144, 'distance_accuracy_value', 'NONE');
#105 = CARTESIAN_POINT ( 'NONE',  ( -12.00000000000000355, 0.1250000000000000000, 24.00000000000000355 ) ) ;
#106 = CARTESIAN_POINT ( 'NONE',  ( -12.00000000000000711, -0.1250000000000000000, -24.00000000000000355 ) ) ;
#107 = ADVANCED_FACE ( 'NONE', ( #87 ), #31, .F. ) ;
#108 = FACE_OUTER_BOUND ( 'NONE', #91, .T. ) ;
#109 =( LENGTH_UNIT ( ) NAMED_UNIT ( * ) SI_UNIT ( $, .METRE. ) );
#110 = CARTESIAN_POINT ( 'NONE',  ( 11.99999999999999645, 0.1250000000000000000, -24.00000000000000355 ) ) ;
#111 = EDGE_CURVE ( 'NONE', #58, #80, #165, .T. ) ;
#112 = DIRECTION ( 'NONE',  ( 1.000000000000000000, -0.000000000000000000, -0.000000000000000000 ) ) ;
#113 = VECTOR ( 'NONE', #16, 39.37007874015748143 ) ;
#114 = ORIENTED_EDGE ( 'NONE', *, *, #167, .T. ) ;
#115 = ORIENTED_EDGE ( 'NONE', *, *, #65, .T. ) ;
#116 = FACE_OUTER_BOUND ( 'NONE', #38, .T. ) ;
#117 = EDGE_CURVE ( 'NONE', #80, #36, #72, .T. ) ;
#118 = ORIENTED_EDGE ( 'NONE', *, *, #127, .F. ) ;
#119 = DIRECTION ( 'NONE',  ( -1.365923996832131609E-16, -0.000000000000000000, -1.000000000000000000 ) ) ;
#120 = DIMENSIONAL_EXPONENTS ( 1.000000000000000000, 0.000000000000000000, 0.000000000000000000, 0.000000000000000000, 0.000000000000000000, 0.000000000000000000, 0.000000000000000000 ) ;
#121 = CLOSED_SHELL ( 'NONE', ( #63, #50, #84, #34, #107, #164 ) ) ;
#122 = EDGE_CURVE ( 'NONE', #193, #129, #202, .T. ) ;
#123 = APPLICATION_PROTOCOL_DEFINITION ( 'draft international standard', 'automotive_design', 1998, #210 ) ;
#124 = PLANE ( 'NONE',  #26 ) ;
#125 = CARTESIAN_POINT ( 'NONE',  ( -12.00000000000000711, 0.1250000000000000000, -24.00000000000000355 ) ) ;
#126 = LINE ( 'NONE', #71, #145 ) ;
#127 = EDGE_CURVE ( 'NONE', #174, #60, #126, .T. ) ;
#128 = CARTESIAN_POINT ( 'NONE',  ( 12.00000000000000355, 0.1250000000000000000, 24.00000000000000355 ) ) ;
#129 = VERTEX_POINT ( 'NONE', #21 ) ;
#130 =( CONVERSION_BASED_UNIT ( 'INCH', #148 ) LENGTH_UNIT ( ) NAMED_UNIT ( #29 ) );
#131 = EDGE_LOOP ( 'NONE', ( #73, #133, #79, #6 ) ) ;
#132 = SURFACE_STYLE_FILL_AREA ( #25 ) ;
#133 = ORIENTED_EDGE ( 'NONE', *, *, #11, .F. ) ;
#134 = CARTESIAN_POINT ( 'NONE',  ( 0.000000000000000000, -0.1250000000000000000, 0.000000000000000000 ) ) ;
#135 = CARTESIAN_POINT ( 'NONE',  ( -12.00000000000000711, 0.1250000000000000000, -24.00000000000000355 ) ) ;
#136 = VECTOR ( 'NONE', #184, 39.37007874015748143 ) ;
#137 = DIRECTION ( 'NONE',  ( 0.000000000000000000, -0.000000000000000000, 1.000000000000000000 ) ) ;
#138 = CARTESIAN_POINT ( 'NONE',  ( 11.99999999999999645, 0.1250000000000000000, -24.00000000000000355 ) ) ;
#139 = DIRECTION ( 'NONE',  ( -0.000000000000000000, -1.000000000000000000, -0.000000000000000000 ) ) ;
#140 = ORIENTED_EDGE ( 'NONE', *, *, #122, .F. ) ;
#141 = LINE ( 'NONE', #200, #49 ) ;
#142 = LINE ( 'NONE', #68, #136 ) ;
#143 = ORIENTED_EDGE ( 'NONE', *, *, #198, .F. ) ;
#144 =( CONVERSION_BASED_UNIT ( 'INCH', #206 ) LENGTH_UNIT ( ) NAMED_UNIT ( #103 ) );
#145 = VECTOR ( 'NONE', #187, 39.37007874015748143 ) ;
#146 = ORIENTED_EDGE ( 'NONE', *, *, #167, .F. ) ;
#147 = DIRECTION ( 'NONE',  ( 9.106159978880878627E-17, 0.000000000000000000, 1.000000000000000000 ) ) ;
#148 = LENGTH_MEASURE_WITH_UNIT ( LENGTH_MEASURE( 0.02539999999999999897 ), #62 );
#149 = EDGE_CURVE ( 'NONE', #36, #129, #142, .T. ) ;
#150 = DIRECTION ( 'NONE',  ( 0.000000000000000000, 0.000000000000000000, 1.000000000000000000 ) ) ;
#151 = PRODUCT_DEFINITION_SHAPE ( 'NONE', 'NONE',  #152 ) ;
#152 = PRODUCT_DEFINITION ( 'UNKNOWN', '', #179, #188 ) ;
#153 = MANIFOLD_SOLID_BREP ( 'Boss-Extrude1', #121 ) ;
#154 = DIRECTION ( 'NONE',  ( -0.000000000000000000, -1.000000000000000000, -0.000000000000000000 ) ) ;
#155 = DIRECTION ( 'NONE',  ( -1.000000000000000000, 0.000000000000000000, 0.000000000000000000 ) ) ;
#156 =( GEOMETRIC_REPRESENTATION_CONTEXT ( 3 ) GLOBAL_UNCERTAINTY_ASSIGNED_CONTEXT ( ( #170 ) ) GLOBAL_UNIT_ASSIGNED_CONTEXT ( ( #74, #211, #92 ) ) REPRESENTATION_CONTEXT ( 'NONE', 'WORKASPACE' ) );
#157 = DIRECTION ( 'NONE',  ( 0.000000000000000000, 0.000000000000000000, -1.000000000000000000 ) ) ;
#158 = FACE_OUTER_BOUND ( 'NONE', #39, .T. ) ;
#159 = ORIENTED_EDGE ( 'NONE', *, *, #185, .T. ) ;
#160 = CARTESIAN_POINT ( 'NONE',  ( 11.99999999999999645, 0.1250000000000000000, -24.00000000000000355 ) ) ;
#161 =( GEOMETRIC_REPRESENTATION_CONTEXT ( 3 ) GLOBAL_UNCERTAINTY_ASSIGNED_CONTEXT ( ( #104 ) ) GLOBAL_UNIT_ASSIGNED_CONTEXT ( ( #144, #45, #192 ) ) REPRESENTATION_CONTEXT ( 'NONE', 'WORKASPACE' ) );
#162 = CARTESIAN_POINT ( 'NONE',  ( 11.99999999999999645, 0.1250000000000000000, -24.00000000000000355 ) ) ;
#163 = AXIS2_PLACEMENT_3D ( 'NONE', #172, #157, #5 ) ;
#164 = ADVANCED_FACE ( 'NONE', ( #116 ), #18, .T. ) ;
#165 = LINE ( 'NONE', #125, #113 ) ;
#166 = FILL_AREA_STYLE ('',( #32 ) ) ;
#167 = EDGE_CURVE ( 'NONE', #193, #42, #194, .T. ) ;
#168 = PLANE ( 'NONE',  #197 ) ;
#169 = AXIS2_PLACEMENT_3D ( 'NONE', #14, #150, #102 ) ;
#170 = UNCERTAINTY_MEASURE_WITH_UNIT (LENGTH_MEASURE( 1.000000000000000082E-05 ), #74, 'distance_accuracy_value', 'NONE');
#171 = PLANE ( 'NONE',  #163 ) ;
#172 = CARTESIAN_POINT ( 'NONE',  ( 12.00000000000000355, 0.1250000000000000000, 24.00000000000000355 ) ) ;
#173 =( NAMED_UNIT ( * ) PLANE_ANGLE_UNIT ( ) SI_UNIT ( $, .RADIAN. ) );
#174 = VERTEX_POINT ( 'NONE', #83 ) ;
#175 = CARTESIAN_POINT ( 'NONE',  ( 12.00000000000000355, 0.1250000000000000000, 24.00000000000000355 ) ) ;
#176 = ORIENTED_EDGE ( 'NONE', *, *, #182, .T. ) ;
#177 = LINE ( 'NONE', #94, #99 ) ;
#178 = COLOUR_RGB ( '',1.000000000000000000, 1.000000000000000000, 1.000000000000000000 ) ;
#179 = PRODUCT_DEFINITION_FORMATION_WITH_SPECIFIED_SOURCE ( 'ANY', '', #44, .NOT_KNOWN. ) ;
#180 = FILL_AREA_STYLE_COLOUR ( '', #196 ) ;
#181 = VECTOR ( 'NONE', #155, 39.37007874015748143 ) ;
#182 = EDGE_CURVE ( 'NONE', #80, #193, #9, .T. ) ;
#183 = DIRECTION ( 'NONE',  ( -1.000000000000000000, 0.000000000000000000, 1.365923996832131609E-16 ) ) ;
#184 = DIRECTION ( 'NONE',  ( 1.000000000000000000, -0.000000000000000000, -0.000000000000000000 ) ) ;
#185 = EDGE_CURVE ( 'NONE', #60, #36, #177, .T. ) ;
#186 = AXIS2_PLACEMENT_3D ( 'NONE', #138, #137, #85 ) ;
#187 = DIRECTION ( 'NONE',  ( -1.000000000000000000, 0.000000000000000000, 0.000000000000000000 ) ) ;
#188 = PRODUCT_DEFINITION_CONTEXT ( 'detailed design', #210, 'design' ) ;
#189 = DIRECTION ( 'NONE',  ( -9.106159978880877395E-17, 0.000000000000000000, -1.000000000000000000 ) ) ;
#190 = PRESENTATION_LAYER_ASSIGNMENT (  '', '', ( #69 ) ) ;
#191 = VECTOR ( 'NONE', #112, 39.37007874015748143 ) ;
#192 =( NAMED_UNIT ( * ) SI_UNIT ( $, .STERADIAN. ) SOLID_ANGLE_UNIT ( ) );
#193 = VERTEX_POINT ( 'NONE', #175 ) ;
#194 = LINE ( 'NONE', #162, #59 ) ;
#195 = VECTOR ( 'NONE', #154, 39.37007874015748143 ) ;
#196 = COLOUR_RGB ( '',1.000000000000000000, 1.000000000000000000, 1.000000000000000000 ) ;
#197 = AXIS2_PLACEMENT_3D ( 'NONE', #88, #183, #204 ) ;
#198 = EDGE_CURVE ( 'NONE', #42, #174, #209, .T. ) ;
#199 = FACE_OUTER_BOUND ( 'NONE', #131, .T. ) ;
#200 = CARTESIAN_POINT ( 'NONE',  ( 11.99999999999999645, -0.1250000000000000000, -24.00000000000000355 ) ) ;
#201 = CARTESIAN_POINT ( 'NONE',  ( 11.99999999999999645, 0.1250000000000000000, -24.00000000000000355 ) ) ;
#202 = LINE ( 'NONE', #128, #195 ) ;
#203 = ORIENTED_EDGE ( 'NONE', *, *, #149, .F. ) ;
#204 = DIRECTION ( 'NONE',  ( 1.365923996832131609E-16, 0.000000000000000000, 1.000000000000000000 ) ) ;
#205 = ORIENTED_EDGE ( 'NONE', *, *, #111, .F. ) ;
#206 = LENGTH_MEASURE_WITH_UNIT ( LENGTH_MEASURE( 0.02539999999999999897 ), #78 );
#207 = DIRECTION ( 'NONE',  ( 0.000000000000000000, -0.000000000000000000, -1.000000000000000000 ) ) ;
#208 = ORIENTED_EDGE ( 'NONE', *, *, #185, .F. ) ;
#209 = LINE ( 'NONE', #160, #48 ) ;
#210 = APPLICATION_CONTEXT ( 'automotive_design' ) ;
#211 =( NAMED_UNIT ( * ) PLANE_ANGLE_UNIT ( ) SI_UNIT ( $, .RADIAN. ) );
ENDSEC;
END-ISO-10303-21;
