ISO-10303-21;
HEADER;
FILE_DESCRIPTION (( 'STEP AP214' ),
    '1' );
FILE_NAME ('WCP-0156 Rev1.STEP',
    '2019-12-22T04:15:26',
    ( '' ),
    ( '' ),
    'SwSTEP 2.0',
    'SolidWorks 2018',
    '' );
FILE_SCHEMA (( 'AUTOMOTIVE_DESIGN' ));
ENDSEC;

DATA;
#1 = CIRCLE ( 'NONE', #217, 0.009999999999999995004 ) ;
#2 = CARTESIAN_POINT ( 'NONE',  ( 0.0000000000000000000, 0.2500000000000000000, 0.0000000000000000000 ) ) ;
#3 = CARTESIAN_POINT ( 'NONE',  ( 1.469576158976823984E-17, -0.2500000000000000000, -0.1150000000000000050 ) ) ;
#4 = AXIS2_PLACEMENT_3D ( 'NONE', #43, #20, #162 ) ;
#5 = ADVANCED_BREP_SHAPE_REPRESENTATION ( 'WCP-0156 Rev1', ( #54, #63 ), #105 ) ;
#6 = DIRECTION ( 'NONE',  ( -0.0000000000000000000, -1.000000000000000000, -0.0000000000000000000 ) ) ;
#7 = DIMENSIONAL_EXPONENTS ( 1.000000000000000000, 0.0000000000000000000, 0.0000000000000000000, 0.0000000000000000000, 0.0000000000000000000, 0.0000000000000000000, 0.0000000000000000000 ) ;
#8 = SURFACE_STYLE_USAGE ( .BOTH. , #149 ) ;
#9 = LENGTH_MEASURE_WITH_UNIT ( LENGTH_MEASURE( 0.02539999999999999897 ), #104 );
#10 = ORIENTED_EDGE ( 'NONE', *, *, #100, .T. ) ;
#11 = DIRECTION ( 'NONE',  ( 0.0000000000000000000, 0.0000000000000000000, 1.000000000000000000 ) ) ;
#12 = ORIENTED_EDGE ( 'NONE', *, *, #60, .T. ) ;
#13 = PRESENTATION_LAYER_ASSIGNMENT (  '', '', ( #39 ) ) ;
#14 = EDGE_LOOP ( 'NONE', ( #15, #19, #109, #74 ) ) ;
#15 = ORIENTED_EDGE ( 'NONE', *, *, #231, .F. ) ;
#16 =( NAMED_UNIT ( * ) PLANE_ANGLE_UNIT ( ) SI_UNIT ( $, .RADIAN. ) );
#17 = EDGE_CURVE ( 'NONE', #229, #211, #55, .T. ) ;
#18 = FACE_OUTER_BOUND ( 'NONE', #34, .T. ) ;
#19 = ORIENTED_EDGE ( 'NONE', *, *, #246, .T. ) ;
#20 = DIRECTION ( 'NONE',  ( -0.0000000000000000000, -1.000000000000000000, -0.0000000000000000000 ) ) ;
#21 = ADVANCED_FACE ( 'NONE', ( #185 ), #183, .F. ) ;
#22 = CARTESIAN_POINT ( 'NONE',  ( 1.469576158976823984E-17, 0.2500000000000000000, -0.1150000000000000050 ) ) ;
#23 = DIRECTION ( 'NONE',  ( 0.0000000000000000000, 1.000000000000000000, 0.0000000000000000000 ) ) ;
#24 = SURFACE_STYLE_FILL_AREA ( #153 ) ;
#25 = ORIENTED_EDGE ( 'NONE', *, *, #210, .F. ) ;
#26 = EDGE_CURVE ( 'NONE', #87, #233, #1, .T. ) ;
#27 = DIRECTION ( 'NONE',  ( 1.224646799147352961E-16, 0.0000000000000000000, -1.000000000000000000 ) ) ;
#28 = CARTESIAN_POINT ( 'NONE',  ( 0.0000000000000000000, 0.2500000000000000000, -0.1250000000000000000 ) ) ;
#29 = FACE_OUTER_BOUND ( 'NONE', #222, .T. ) ;
#30 = DIRECTION ( 'NONE',  ( 1.000000000000000000, 0.0000000000000000000, 0.0000000000000000000 ) ) ;
#31 = AXIS2_PLACEMENT_3D ( 'NONE', #115, #253, #134 ) ;
#32 =( NAMED_UNIT ( * ) PLANE_ANGLE_UNIT ( ) SI_UNIT ( $, .RADIAN. ) );
#33 = DIMENSIONAL_EXPONENTS ( 1.000000000000000000, 0.0000000000000000000, 0.0000000000000000000, 0.0000000000000000000, 0.0000000000000000000, 0.0000000000000000000, 0.0000000000000000000 ) ;
#34 = EDGE_LOOP ( 'NONE', ( #110, #189, #130, #241 ) ) ;
#35 = EDGE_CURVE ( 'NONE', #211, #229, #152, .T. ) ;
#36 =( GEOMETRIC_REPRESENTATION_CONTEXT ( 3 ) GLOBAL_UNCERTAINTY_ASSIGNED_CONTEXT ( ( #81 ) ) GLOBAL_UNIT_ASSIGNED_CONTEXT ( ( #44, #16, #59 ) ) REPRESENTATION_CONTEXT ( 'NONE', 'WORKASPACE' ) );
#37 = TOROIDAL_SURFACE ( 'NONE', #192, 0.1150000000000000050, 0.01000000000000000021 ) ;
#38 = PRESENTATION_STYLE_ASSIGNMENT (( #136 ) ) ;
#39 = STYLED_ITEM ( 'NONE', ( #38 ), #54 ) ;
#40 = CARTESIAN_POINT ( 'NONE',  ( 0.0000000000000000000, 0.2500000000000000000, 0.0000000000000000000 ) ) ;
#41 = VECTOR ( 'NONE', #242, 39.37007874015748143 ) ;
#42 = AXIS2_PLACEMENT_3D ( 'NONE', #245, #239, #187 ) ;
#43 = CARTESIAN_POINT ( 'NONE',  ( 0.0000000000000000000, 0.2399999999999999911, 0.0000000000000000000 ) ) ;
#44 =( CONVERSION_BASED_UNIT ( 'INCH', #50 ) LENGTH_UNIT ( ) NAMED_UNIT ( #250 ) );
#45 = DIRECTION ( 'NONE',  ( 1.000000000000000000, -0.0000000000000000000, 1.224646799147353207E-16 ) ) ;
#46 = CARTESIAN_POINT ( 'NONE',  ( 0.0000000000000000000, -0.2399999999999999634, -0.1250000000000000000 ) ) ;
#47 = EDGE_CURVE ( 'NONE', #125, #87, #170, .T. ) ;
#48 = CARTESIAN_POINT ( 'NONE',  ( 1.530808498934191509E-17, 0.2500000000000000000, 0.1250000000000000000 ) ) ;
#49 = APPLICATION_CONTEXT ( 'automotive_design' ) ;
#50 = LENGTH_MEASURE_WITH_UNIT ( LENGTH_MEASURE( 0.02539999999999999897 ), #132 );
#51 = AXIS2_PLACEMENT_3D ( 'NONE', #2, #141, #199 ) ;
#52 = AXIS2_PLACEMENT_3D ( 'NONE', #119, #45, #27 ) ;
#53 = CIRCLE ( 'NONE', #72, 0.1150000000000000050 ) ;
#54 = MANIFOLD_SOLID_BREP ( 'Fillet1', #213 ) ;
#55 = CIRCLE ( 'NONE', #194, 0.1250000000000000000 ) ;
#56 = FILL_AREA_STYLE_COLOUR ( '', #92 ) ;
#57 = CARTESIAN_POINT ( 'NONE',  ( 0.0000000000000000000, 0.2399999999999999911, -0.1250000000000000000 ) ) ;
#58 = ORIENTED_EDGE ( 'NONE', *, *, #246, .F. ) ;
#59 =( NAMED_UNIT ( * ) SI_UNIT ( $, .STERADIAN. ) SOLID_ANGLE_UNIT ( ) );
#60 = EDGE_CURVE ( 'NONE', #175, #207, #53, .T. ) ;
#61 = DIRECTION ( 'NONE',  ( -0.0000000000000000000, -1.000000000000000000, -0.0000000000000000000 ) ) ;
#62 = DIRECTION ( 'NONE',  ( 0.0000000000000000000, 0.0000000000000000000, 1.000000000000000000 ) ) ;
#63 = AXIS2_PLACEMENT_3D ( 'NONE', #70, #126, #30 ) ;
#64 = CARTESIAN_POINT ( 'NONE',  ( 1.408343819019456151E-17, -0.2399999999999999634, -0.1150000000000000050 ) ) ;
#65 = CARTESIAN_POINT ( 'NONE',  ( 0.0000000000000000000, -0.2399999999999999634, 0.0000000000000000000 ) ) ;
#66 =( LENGTH_UNIT ( ) NAMED_UNIT ( * ) SI_UNIT ( $, .METRE. ) );
#67 = AXIS2_PLACEMENT_3D ( 'NONE', #142, #23, #118 ) ;
#68 = ORIENTED_EDGE ( 'NONE', *, *, #17, .T. ) ;
#69 = APPLICATION_CONTEXT ( 'automotive_design' ) ;
#70 = CARTESIAN_POINT ( 'NONE',  ( 0.0000000000000000000, 0.0000000000000000000, 0.0000000000000000000 ) ) ;
#71 = EDGE_LOOP ( 'NONE', ( #10, #82 ) ) ;
#72 = AXIS2_PLACEMENT_3D ( 'NONE', #195, #113, #251 ) ;
#73 = CIRCLE ( 'NONE', #166, 0.1150000000000000050 ) ;
#74 = ORIENTED_EDGE ( 'NONE', *, *, #35, .T. ) ;
#75 = AXIS2_PLACEMENT_3D ( 'NONE', #65, #244, #62 ) ;
#76 = ORIENTED_EDGE ( 'NONE', *, *, #160, .F. ) ;
#77 = PRODUCT_DEFINITION_CONTEXT ( 'detailed design', #69, 'design' ) ;
#78 = DIRECTION ( 'NONE',  ( 0.0000000000000000000, 0.0000000000000000000, -1.000000000000000000 ) ) ;
#79 = TOROIDAL_SURFACE ( 'NONE', #75, 0.1150000000000000050, 0.01000000000000000021 ) ;
#80 = AXIS2_PLACEMENT_3D ( 'NONE', #204, #148, #11 ) ;
#81 = UNCERTAINTY_MEASURE_WITH_UNIT (LENGTH_MEASURE( 1.000000000000000082E-05 ), #44, 'distance_accuracy_value', 'NONE');
#82 = ORIENTED_EDGE ( 'NONE', *, *, #176, .T. ) ;
#83 = DIRECTION ( 'NONE',  ( 1.224646799147352961E-16, 0.0000000000000000000, -1.000000000000000000 ) ) ;
#84 = AXIS2_PLACEMENT_3D ( 'NONE', #40, #114, #78 ) ;
#85 = APPLICATION_PROTOCOL_DEFINITION ( 'draft international standard', 'automotive_design', 1998, #69 ) ;
#86 = CIRCLE ( 'NONE', #52, 0.009999999999999995004 ) ;
#87 = VERTEX_POINT ( 'NONE', #234 ) ;
#88 = FACE_OUTER_BOUND ( 'NONE', #215, .T. ) ;
#89 = PRODUCT ( 'WCP-0156 Rev1', 'WCP-0156 Rev1', '', ( #151 ) ) ;
#90 = AXIS2_PLACEMENT_3D ( 'NONE', #171, #228, #248 ) ;
#91 = CIRCLE ( 'NONE', #42, 0.1150000000000000050 ) ;
#92 = COLOUR_RGB ( '',0.8666666666666666963, 0.9098039215686274384, 1.000000000000000000 ) ;
#93 = DIRECTION ( 'NONE',  ( 0.0000000000000000000, 0.0000000000000000000, 1.000000000000000000 ) ) ;
#94 = CYLINDRICAL_SURFACE ( 'NONE', #205, 0.1250000000000000000 ) ;
#95 = AXIS2_PLACEMENT_3D ( 'NONE', #203, #164, #163 ) ;
#96 = FACE_OUTER_BOUND ( 'NONE', #71, .T. ) ;
#97 = ORIENTED_EDGE ( 'NONE', *, *, #231, .T. ) ;
#98 = ADVANCED_FACE ( 'NONE', ( #232 ), #146, .T. ) ;
#99 = CARTESIAN_POINT ( 'NONE',  ( 0.0000000000000000000, 0.2500000000000000000, 0.0000000000000000000 ) ) ;
#100 = EDGE_CURVE ( 'NONE', #233, #177, #91, .T. ) ;
#101 = DIRECTION ( 'NONE',  ( 0.0000000000000000000, 0.0000000000000000000, -1.000000000000000000 ) ) ;
#102 = COLOUR_RGB ( '',0.8666666666666666963, 0.9098039215686274384, 1.000000000000000000 ) ;
#103 = CARTESIAN_POINT ( 'NONE',  ( 0.0000000000000000000, -0.2500000000000000000, 0.1150000000000000050 ) ) ;
#104 =( LENGTH_UNIT ( ) NAMED_UNIT ( * ) SI_UNIT ( $, .METRE. ) );
#105 =( GEOMETRIC_REPRESENTATION_CONTEXT ( 3 ) GLOBAL_UNCERTAINTY_ASSIGNED_CONTEXT ( ( #238 ) ) GLOBAL_UNIT_ASSIGNED_CONTEXT ( ( #190, #167, #208 ) ) REPRESENTATION_CONTEXT ( 'NONE', 'WORKASPACE' ) );
#106 = LENGTH_MEASURE_WITH_UNIT ( LENGTH_MEASURE( 0.02539999999999999897 ), #66 );
#107 =( CONVERSION_BASED_UNIT ( 'INCH', #106 ) LENGTH_UNIT ( ) NAMED_UNIT ( #7 ) );
#108 = ORIENTED_EDGE ( 'NONE', *, *, #173, .F. ) ;
#109 = ORIENTED_EDGE ( 'NONE', *, *, #160, .T. ) ;
#110 = ORIENTED_EDGE ( 'NONE', *, *, #186, .F. ) ;
#111 = PRODUCT_DEFINITION_FORMATION_WITH_SPECIFIED_SOURCE ( 'ANY', '', #89, .NOT_KNOWN. ) ;
#112 = ORIENTED_EDGE ( 'NONE', *, *, #17, .F. ) ;
#113 = DIRECTION ( 'NONE',  ( -0.0000000000000000000, -1.000000000000000000, -0.0000000000000000000 ) ) ;
#114 = DIRECTION ( 'NONE',  ( -0.0000000000000000000, -1.000000000000000000, -0.0000000000000000000 ) ) ;
#115 = CARTESIAN_POINT ( 'NONE',  ( 0.0000000000000000000, -0.2399999999999999634, 0.0000000000000000000 ) ) ;
#116 = ORIENTED_EDGE ( 'NONE', *, *, #26, .T. ) ;
#117 = PRODUCT_DEFINITION ( 'UNKNOWN', '', #111, #77 ) ;
#118 = DIRECTION ( 'NONE',  ( 0.0000000000000000000, 0.0000000000000000000, 1.000000000000000000 ) ) ;
#119 = CARTESIAN_POINT ( 'NONE',  ( 1.408343819019456151E-17, 0.2399999999999999911, -0.1150000000000000050 ) ) ;
#120 = ORIENTED_EDGE ( 'NONE', *, *, #47, .F. ) ;
#121 = DIRECTION ( 'NONE',  ( 0.0000000000000000000, -0.0000000000000000000, 1.000000000000000000 ) ) ;
#122 = CARTESIAN_POINT ( 'NONE',  ( 0.0000000000000000000, -0.2399999999999999634, 0.0000000000000000000 ) ) ;
#123 = DIRECTION ( 'NONE',  ( 1.000000000000000000, -0.0000000000000000000, 1.224646799147353207E-16 ) ) ;
#124 = LINE ( 'NONE', #48, #240 ) ;
#125 = VERTEX_POINT ( 'NONE', #57 ) ;
#126 = DIRECTION ( 'NONE',  ( 0.0000000000000000000, 0.0000000000000000000, 1.000000000000000000 ) ) ;
#127 = ORIENTED_EDGE ( 'NONE', *, *, #173, .T. ) ;
#128 = STYLED_ITEM ( 'NONE', ( #212 ), #5 ) ;
#129 = LINE ( 'NONE', #28, #41 ) ;
#130 = ORIENTED_EDGE ( 'NONE', *, *, #235, .T. ) ;
#131 = FILL_AREA_STYLE ('',( #56 ) ) ;
#132 =( LENGTH_UNIT ( ) NAMED_UNIT ( * ) SI_UNIT ( $, .METRE. ) );
#133 = AXIS2_PLACEMENT_3D ( 'NONE', #237, #137, #181 ) ;
#134 = DIRECTION ( 'NONE',  ( 0.0000000000000000000, 0.0000000000000000000, 1.000000000000000000 ) ) ;
#135 = ADVANCED_FACE ( 'NONE', ( #96 ), #220, .T. ) ;
#136 = SURFACE_STYLE_USAGE ( .BOTH. , #196 ) ;
#137 = DIRECTION ( 'NONE',  ( 0.0000000000000000000, 1.000000000000000000, 0.0000000000000000000 ) ) ;
#138 = CARTESIAN_POINT ( 'NONE',  ( 1.530808498934191509E-17, -0.2399999999999999634, 0.1250000000000000000 ) ) ;
#139 = TOROIDAL_SURFACE ( 'NONE', #67, 0.1150000000000000050, 0.01000000000000000021 ) ;
#140 = SURFACE_STYLE_FILL_AREA ( #131 ) ;
#141 = DIRECTION ( 'NONE',  ( 0.0000000000000000000, 1.000000000000000000, 0.0000000000000000000 ) ) ;
#142 = CARTESIAN_POINT ( 'NONE',  ( 0.0000000000000000000, 0.2399999999999999911, 0.0000000000000000000 ) ) ;
#143 = DIRECTION ( 'NONE',  ( 0.0000000000000000000, 1.000000000000000000, 0.0000000000000000000 ) ) ;
#144 = UNCERTAINTY_MEASURE_WITH_UNIT (LENGTH_MEASURE( 1.000000000000000082E-05 ), #107, 'distance_accuracy_value', 'NONE');
#145 = PRODUCT_DEFINITION_SHAPE ( 'NONE', 'NONE',  #117 ) ;
#146 = CYLINDRICAL_SURFACE ( 'NONE', #84, 0.1250000000000000000 ) ;
#147 = DIRECTION ( 'NONE',  ( 0.0000000000000000000, 0.0000000000000000000, 1.000000000000000000 ) ) ;
#148 = DIRECTION ( 'NONE',  ( -1.000000000000000000, 0.0000000000000000000, 0.0000000000000000000 ) ) ;
#149 = SURFACE_SIDE_STYLE ('',( #24 ) ) ;
#150 = PRESENTATION_LAYER_ASSIGNMENT (  '', '', ( #128 ) ) ;
#151 = PRODUCT_CONTEXT ( 'NONE', #49, 'mechanical' ) ;
#152 = CIRCLE ( 'NONE', #31, 0.1250000000000000000 ) ;
#153 = FILL_AREA_STYLE ('',( #201 ) ) ;
#154 = CIRCLE ( 'NONE', #155, 0.009999999999999995004 ) ;
#155 = AXIS2_PLACEMENT_3D ( 'NONE', #64, #123, #83 ) ;
#156 = ORIENTED_EDGE ( 'NONE', *, *, #26, .F. ) ;
#157 = DIRECTION ( 'NONE',  ( 0.0000000000000000000, 1.000000000000000000, 0.0000000000000000000 ) ) ;
#158 = ADVANCED_FACE ( 'NONE', ( #29 ), #139, .T. ) ;
#159 = DIRECTION ( 'NONE',  ( 0.0000000000000000000, 0.0000000000000000000, 1.000000000000000000 ) ) ;
#160 = EDGE_CURVE ( 'NONE', #125, #211, #129, .T. ) ;
#161 = ORIENTED_EDGE ( 'NONE', *, *, #100, .F. ) ;
#162 = DIRECTION ( 'NONE',  ( 0.0000000000000000000, 0.0000000000000000000, 1.000000000000000000 ) ) ;
#163 = DIRECTION ( 'NONE',  ( 0.0000000000000000000, 0.0000000000000000000, 1.000000000000000000 ) ) ;
#164 = DIRECTION ( 'NONE',  ( 0.0000000000000000000, 1.000000000000000000, 0.0000000000000000000 ) ) ;
#165 = EDGE_LOOP ( 'NONE', ( #12, #180 ) ) ;
#166 = AXIS2_PLACEMENT_3D ( 'NONE', #224, #6, #147 ) ;
#167 =( NAMED_UNIT ( * ) PLANE_ANGLE_UNIT ( ) SI_UNIT ( $, .RADIAN. ) );
#168 = TOROIDAL_SURFACE ( 'NONE', #95, 0.1150000000000000050, 0.01000000000000000021 ) ;
#169 =( NAMED_UNIT ( * ) SI_UNIT ( $, .STERADIAN. ) SOLID_ANGLE_UNIT ( ) );
#170 = CIRCLE ( 'NONE', #4, 0.1250000000000000000 ) ;
#171 = CARTESIAN_POINT ( 'NONE',  ( 0.0000000000000000000, 0.2399999999999999911, 0.0000000000000000000 ) ) ;
#172 = SHAPE_DEFINITION_REPRESENTATION ( #145, #5 ) ;
#173 = EDGE_CURVE ( 'NONE', #125, #177, #86, .T. ) ;
#174 = FACE_OUTER_BOUND ( 'NONE', #247, .T. ) ;
#175 = VERTEX_POINT ( 'NONE', #103 ) ;
#176 = EDGE_CURVE ( 'NONE', #177, #233, #209, .T. ) ;
#177 = VERTEX_POINT ( 'NONE', #22 ) ;
#178 = CARTESIAN_POINT ( 'NONE',  ( 0.0000000000000000000, -0.2399999999999999634, 0.0000000000000000000 ) ) ;
#179 = AXIS2_PLACEMENT_3D ( 'NONE', #99, #243, #121 ) ;
#180 = ORIENTED_EDGE ( 'NONE', *, *, #210, .T. ) ;
#181 = DIRECTION ( 'NONE',  ( 0.0000000000000000000, -0.0000000000000000000, 1.000000000000000000 ) ) ;
#182 = ADVANCED_FACE ( 'NONE', ( #174 ), #168, .T. ) ;
#183 = PLANE ( 'NONE',  #133 ) ;
#184 = CARTESIAN_POINT ( 'NONE',  ( 0.0000000000000000000, 0.2500000000000000000, 0.1150000000000000050 ) ) ;
#185 = FACE_OUTER_BOUND ( 'NONE', #165, .T. ) ;
#186 = EDGE_CURVE ( 'NONE', #207, #211, #154, .T. ) ;
#187 = DIRECTION ( 'NONE',  ( 0.0000000000000000000, 0.0000000000000000000, 1.000000000000000000 ) ) ;
#188 = FACE_OUTER_BOUND ( 'NONE', #193, .T. ) ;
#189 = ORIENTED_EDGE ( 'NONE', *, *, #60, .F. ) ;
#190 =( CONVERSION_BASED_UNIT ( 'INCH', #9 ) LENGTH_UNIT ( ) NAMED_UNIT ( #33 ) );
#191 = MECHANICAL_DESIGN_GEOMETRIC_PRESENTATION_REPRESENTATION (  '', ( #39 ), #36 ) ;
#192 = AXIS2_PLACEMENT_3D ( 'NONE', #122, #143, #202 ) ;
#193 = EDGE_LOOP ( 'NONE', ( #25, #219, #112, #226 ) ) ;
#194 = AXIS2_PLACEMENT_3D ( 'NONE', #178, #157, #93 ) ;
#195 = CARTESIAN_POINT ( 'NONE',  ( 0.0000000000000000000, -0.2500000000000000000, 0.0000000000000000000 ) ) ;
#196 = SURFACE_SIDE_STYLE ('',( #140 ) ) ;
#197 = ADVANCED_FACE ( 'NONE', ( #88 ), #94, .T. ) ;
#198 = ADVANCED_FACE ( 'NONE', ( #188 ), #79, .T. ) ;
#199 = DIRECTION ( 'NONE',  ( 0.0000000000000000000, 0.0000000000000000000, 1.000000000000000000 ) ) ;
#200 = ORIENTED_EDGE ( 'NONE', *, *, #47, .T. ) ;
#201 = FILL_AREA_STYLE_COLOUR ( '', #102 ) ;
#202 = DIRECTION ( 'NONE',  ( 0.0000000000000000000, 0.0000000000000000000, 1.000000000000000000 ) ) ;
#203 = CARTESIAN_POINT ( 'NONE',  ( 0.0000000000000000000, 0.2399999999999999911, 0.0000000000000000000 ) ) ;
#204 = CARTESIAN_POINT ( 'NONE',  ( 0.0000000000000000000, -0.2399999999999999634, 0.1150000000000000050 ) ) ;
#205 = AXIS2_PLACEMENT_3D ( 'NONE', #221, #223, #101 ) ;
#206 = APPLICATION_PROTOCOL_DEFINITION ( 'draft international standard', 'automotive_design', 1998, #49 ) ;
#207 = VERTEX_POINT ( 'NONE', #3 ) ;
#208 =( NAMED_UNIT ( * ) SI_UNIT ( $, .STERADIAN. ) SOLID_ANGLE_UNIT ( ) );
#209 = CIRCLE ( 'NONE', #51, 0.1150000000000000050 ) ;
#210 = EDGE_CURVE ( 'NONE', #207, #175, #73, .T. ) ;
#211 = VERTEX_POINT ( 'NONE', #46 ) ;
#212 = PRESENTATION_STYLE_ASSIGNMENT (( #8 ) ) ;
#213 = CLOSED_SHELL ( 'NONE', ( #158, #198, #197, #98, #135, #21, #218, #182 ) ) ;
#214 = MECHANICAL_DESIGN_GEOMETRIC_PRESENTATION_REPRESENTATION (  '', ( #128 ), #227 ) ;
#215 = EDGE_LOOP ( 'NONE', ( #200, #97, #68, #76 ) ) ;
#216 = PRODUCT_RELATED_PRODUCT_CATEGORY ( 'part', '', ( #89 ) ) ;
#217 = AXIS2_PLACEMENT_3D ( 'NONE', #252, #236, #159 ) ;
#218 = ADVANCED_FACE ( 'NONE', ( #18 ), #37, .T. ) ;
#219 = ORIENTED_EDGE ( 'NONE', *, *, #186, .T. ) ;
#220 = PLANE ( 'NONE',  #179 ) ;
#221 = CARTESIAN_POINT ( 'NONE',  ( 0.0000000000000000000, 0.2500000000000000000, 0.0000000000000000000 ) ) ;
#222 = EDGE_LOOP ( 'NONE', ( #120, #127, #161, #156 ) ) ;
#223 = DIRECTION ( 'NONE',  ( -0.0000000000000000000, -1.000000000000000000, -0.0000000000000000000 ) ) ;
#224 = CARTESIAN_POINT ( 'NONE',  ( 0.0000000000000000000, -0.2500000000000000000, 0.0000000000000000000 ) ) ;
#225 = CIRCLE ( 'NONE', #80, 0.009999999999999995004 ) ;
#226 = ORIENTED_EDGE ( 'NONE', *, *, #235, .F. ) ;
#227 =( GEOMETRIC_REPRESENTATION_CONTEXT ( 3 ) GLOBAL_UNCERTAINTY_ASSIGNED_CONTEXT ( ( #144 ) ) GLOBAL_UNIT_ASSIGNED_CONTEXT ( ( #107, #32, #169 ) ) REPRESENTATION_CONTEXT ( 'NONE', 'WORKASPACE' ) );
#228 = DIRECTION ( 'NONE',  ( -0.0000000000000000000, -1.000000000000000000, -0.0000000000000000000 ) ) ;
#229 = VERTEX_POINT ( 'NONE', #138 ) ;
#230 = CIRCLE ( 'NONE', #90, 0.1250000000000000000 ) ;
#231 = EDGE_CURVE ( 'NONE', #87, #229, #124, .T. ) ;
#232 = FACE_OUTER_BOUND ( 'NONE', #14, .T. ) ;
#233 = VERTEX_POINT ( 'NONE', #184 ) ;
#234 = CARTESIAN_POINT ( 'NONE',  ( 1.530808498934191509E-17, 0.2399999999999999911, 0.1250000000000000000 ) ) ;
#235 = EDGE_CURVE ( 'NONE', #175, #229, #225, .T. ) ;
#236 = DIRECTION ( 'NONE',  ( -1.000000000000000000, 0.0000000000000000000, 0.0000000000000000000 ) ) ;
#237 = CARTESIAN_POINT ( 'NONE',  ( 0.0000000000000000000, -0.2500000000000000000, 0.0000000000000000000 ) ) ;
#238 = UNCERTAINTY_MEASURE_WITH_UNIT (LENGTH_MEASURE( 1.000000000000000082E-05 ), #190, 'distance_accuracy_value', 'NONE');
#239 = DIRECTION ( 'NONE',  ( 0.0000000000000000000, 1.000000000000000000, 0.0000000000000000000 ) ) ;
#240 = VECTOR ( 'NONE', #61, 39.37007874015748143 ) ;
#241 = ORIENTED_EDGE ( 'NONE', *, *, #35, .F. ) ;
#242 = DIRECTION ( 'NONE',  ( -0.0000000000000000000, -1.000000000000000000, -0.0000000000000000000 ) ) ;
#243 = DIRECTION ( 'NONE',  ( 0.0000000000000000000, 1.000000000000000000, 0.0000000000000000000 ) ) ;
#244 = DIRECTION ( 'NONE',  ( 0.0000000000000000000, 1.000000000000000000, 0.0000000000000000000 ) ) ;
#245 = CARTESIAN_POINT ( 'NONE',  ( 0.0000000000000000000, 0.2500000000000000000, 0.0000000000000000000 ) ) ;
#246 = EDGE_CURVE ( 'NONE', #87, #125, #230, .T. ) ;
#247 = EDGE_LOOP ( 'NONE', ( #108, #58, #116, #249 ) ) ;
#248 = DIRECTION ( 'NONE',  ( 0.0000000000000000000, 0.0000000000000000000, 1.000000000000000000 ) ) ;
#249 = ORIENTED_EDGE ( 'NONE', *, *, #176, .F. ) ;
#250 = DIMENSIONAL_EXPONENTS ( 1.000000000000000000, 0.0000000000000000000, 0.0000000000000000000, 0.0000000000000000000, 0.0000000000000000000, 0.0000000000000000000, 0.0000000000000000000 ) ;
#251 = DIRECTION ( 'NONE',  ( 0.0000000000000000000, 0.0000000000000000000, 1.000000000000000000 ) ) ;
#252 = CARTESIAN_POINT ( 'NONE',  ( 0.0000000000000000000, 0.2399999999999999911, 0.1150000000000000050 ) ) ;
#253 = DIRECTION ( 'NONE',  ( 0.0000000000000000000, 1.000000000000000000, 0.0000000000000000000 ) ) ;
ENDSEC;
END-ISO-10303-21;
