ISO-10303-21;
HEADER;
FILE_DESCRIPTION (( 'STEP AP214' ),
    '1' );
FILE_NAME ('WCP-0083 Rev1.STEP',
    '2021-04-27T07:35:46',
    ( '' ),
    ( '' ),
    'SwSTEP 2.0',
    'SolidWorks 2020',
    '' );
FILE_SCHEMA (( 'AUTOMOTIVE_DESIGN' ));
ENDSEC;

DATA;
#1 = LINE ( 'NONE', #118, #218 ) ;
#2 = VECTOR ( 'NONE', #287, 39.37007874015748143 ) ;
#3 = CARTESIAN_POINT ( 'NONE',  ( 29.50000000000000000, -1.000000000000000000, -1.000000000000000000 ) ) ;
#4 = CARTESIAN_POINT ( 'NONE',  ( 29.50000000000000000, -1.000000000000000000, 0.9999999999999998890 ) ) ;
#5 = CARTESIAN_POINT ( 'NONE',  ( -29.50000000000000000, -0.9375000000000000000, 0.000000000000000000 ) ) ;
#6 = DIRECTION ( 'NONE',  ( 0.000000000000000000, 0.000000000000000000, -1.000000000000000000 ) ) ;
#7 = LINE ( 'NONE', #4, #127 ) ;
#8 = DIRECTION ( 'NONE',  ( 0.000000000000000000, -1.000000000000000000, 0.000000000000000000 ) ) ;
#9 = CARTESIAN_POINT ( 'NONE',  ( 29.50000000000000000, -1.000000000000000000, 0.9999999999999998890 ) ) ;
#10 = ORIENTED_EDGE ( 'NONE', *, *, #227, .T. ) ;
#11 = AXIS2_PLACEMENT_3D ( 'NONE', #166, #304, #58 ) ;
#12 = EDGE_CURVE ( 'NONE', #239, #96, #22, .T. ) ;
#13 = DIRECTION ( 'NONE',  ( 0.000000000000000000, -1.000000000000000000, 0.000000000000000000 ) ) ;
#14 = VERTEX_POINT ( 'NONE', #189 ) ;
#15 = EDGE_CURVE ( 'NONE', #21, #311, #297, .T. ) ;
#16 = VECTOR ( 'NONE', #222, 39.37007874015748143 ) ;
#17 = DIRECTION ( 'NONE',  ( 0.000000000000000000, 1.000000000000000000, 0.000000000000000000 ) ) ;
#18 = CARTESIAN_POINT ( 'NONE',  ( -29.50000000000000000, 0.9999999999999998890, 0.9999999999999998890 ) ) ;
#19 = EDGE_LOOP ( 'NONE', ( #232, #322, #10, #285 ) ) ;
#20 = EDGE_CURVE ( 'NONE', #342, #35, #129, .T. ) ;
#21 = VERTEX_POINT ( 'NONE', #97 ) ;
#22 = LINE ( 'NONE', #105, #338 ) ;
#23 = CARTESIAN_POINT ( 'NONE',  ( 29.50000000000000000, 0.9999999999999998890, 0.9999999999999998890 ) ) ;
#24 = EDGE_CURVE ( 'NONE', #238, #14, #316, .T. ) ;
#25 = FACE_OUTER_BOUND ( 'NONE', #63, .T. ) ;
#26 = VECTOR ( 'NONE', #210, 39.37007874015748143 ) ;
#27 = DIRECTION ( 'NONE',  ( 0.000000000000000000, 0.000000000000000000, 1.000000000000000000 ) ) ;
#28 = DIRECTION ( 'NONE',  ( -1.000000000000000000, -0.000000000000000000, -0.000000000000000000 ) ) ;
#29 = CARTESIAN_POINT ( 'NONE',  ( -29.50000000000000000, -1.000000000000000000, 0.9999999999999998890 ) ) ;
#30 = EDGE_CURVE ( 'NONE', #311, #309, #264, .T. ) ;
#31 = LINE ( 'NONE', #246, #207 ) ;
#32 = FILL_AREA_STYLE ('',( #59 ) ) ;
#33 = VECTOR ( 'NONE', #191, 39.37007874015748143 ) ;
#34 = PRESENTATION_STYLE_ASSIGNMENT (( #84 ) ) ;
#35 = VERTEX_POINT ( 'NONE', #292 ) ;
#36 = ADVANCED_FACE ( 'NONE', ( #131 ), #99, .F. ) ;
#37 = ORIENTED_EDGE ( 'NONE', *, *, #179, .T. ) ;
#38 = AXIS2_PLACEMENT_3D ( 'NONE', #274, #302, #109 ) ;
#39 = PLANE ( 'NONE',  #42 ) ;
#40 = ORIENTED_EDGE ( 'NONE', *, *, #288, .F. ) ;
#41 = EDGE_LOOP ( 'NONE', ( #101, #209, #217, #244 ) ) ;
#42 = AXIS2_PLACEMENT_3D ( 'NONE', #148, #175, #339 ) ;
#43 = APPLICATION_CONTEXT ( 'automotive_design' ) ;
#44 = ORIENTED_EDGE ( 'NONE', *, *, #70, .T. ) ;
#45 = DIRECTION ( 'NONE',  ( 0.000000000000000000, 0.000000000000000000, 1.000000000000000000 ) ) ;
#46 = DIRECTION ( 'NONE',  ( 0.000000000000000000, 0.000000000000000000, -1.000000000000000000 ) ) ;
#47 = ORIENTED_EDGE ( 'NONE', *, *, #65, .T. ) ;
#48 = ORIENTED_EDGE ( 'NONE', *, *, #141, .F. ) ;
#49 = ADVANCED_FACE ( 'NONE', ( #266 ), #164, .F. ) ;
#50 = ORIENTED_EDGE ( 'NONE', *, *, #203, .F. ) ;
#51 = CARTESIAN_POINT ( 'NONE',  ( 29.50000000000000000, 0.000000000000000000, -0.9375000000000000000 ) ) ;
#52 = LINE ( 'NONE', #111, #68 ) ;
#53 = VECTOR ( 'NONE', #247, 39.37007874015748143 ) ;
#54 = PLANE ( 'NONE',  #133 ) ;
#55 = LINE ( 'NONE', #147, #242 ) ;
#56 = DIRECTION ( 'NONE',  ( -1.000000000000000000, -0.000000000000000000, -0.000000000000000000 ) ) ;
#57 = ADVANCED_FACE ( 'NONE', ( #25, #195 ), #54, .T. ) ;
#58 = DIRECTION ( 'NONE',  ( 0.000000000000000000, -0.000000000000000000, -1.000000000000000000 ) ) ;
#59 = FILL_AREA_STYLE_COLOUR ( '', #146 ) ;
#60 = PRODUCT_DEFINITION ( 'UNKNOWN', '', #91, #272 ) ;
#61 = ORIENTED_EDGE ( 'NONE', *, *, #12, .T. ) ;
#62 = FACE_OUTER_BOUND ( 'NONE', #159, .T. ) ;
#63 = EDGE_LOOP ( 'NONE', ( #319, #61, #73, #182 ) ) ;
#64 = UNCERTAINTY_MEASURE_WITH_UNIT (LENGTH_MEASURE( 1.000000000000000082E-05 ), #278, 'distance_accuracy_value', 'NONE');
#65 = EDGE_CURVE ( 'NONE', #14, #124, #78, .T. ) ;
#66 = DIMENSIONAL_EXPONENTS ( 1.000000000000000000, 0.000000000000000000, 0.000000000000000000, 0.000000000000000000, 0.000000000000000000, 0.000000000000000000, 0.000000000000000000 ) ;
#67 = CARTESIAN_POINT ( 'NONE',  ( 29.50000000000000000, 0.000000000000000000, 0.9374999999999998890 ) ) ;
#68 = VECTOR ( 'NONE', #28, 39.37007874015748143 ) ;
#69 = AXIS2_PLACEMENT_3D ( 'NONE', #333, #284, #140 ) ;
#70 = EDGE_CURVE ( 'NONE', #340, #35, #139, .T. ) ;
#71 = DIRECTION ( 'NONE',  ( 0.000000000000000000, -0.000000000000000000, 1.000000000000000000 ) ) ;
#72 = CARTESIAN_POINT ( 'NONE',  ( -29.50000000000000000, 0.9374999999999998890, 0.000000000000000000 ) ) ;
#73 = ORIENTED_EDGE ( 'NONE', *, *, #130, .T. ) ;
#74 = CARTESIAN_POINT ( 'NONE',  ( 29.50000000000000000, -1.000000000000000000, 0.9999999999999998890 ) ) ;
#75 = ORIENTED_EDGE ( 'NONE', *, *, #12, .F. ) ;
#76 = AXIS2_PLACEMENT_3D ( 'NONE', #253, #142, #298 ) ;
#77 = ORIENTED_EDGE ( 'NONE', *, *, #296, .F. ) ;
#78 = LINE ( 'NONE', #223, #138 ) ;
#79 = DIRECTION ( 'NONE',  ( -0.000000000000000000, -1.000000000000000000, -0.000000000000000000 ) ) ;
#80 = AXIS2_PLACEMENT_3D ( 'NONE', #318, #158, #71 ) ;
#81 = PLANE ( 'NONE',  #76 ) ;
#82 =( NAMED_UNIT ( * ) SI_UNIT ( $, .STERADIAN. ) SOLID_ANGLE_UNIT ( ) );
#83 = CARTESIAN_POINT ( 'NONE',  ( 29.50000000000000000, 0.9374999999999998890, 0.9374999999999998890 ) ) ;
#84 = SURFACE_STYLE_USAGE ( .BOTH. , #196 ) ;
#85 = CARTESIAN_POINT ( 'NONE',  ( 29.50000000000000000, 0.9374999999999998890, -0.9375000000000000000 ) ) ;
#86 = SHAPE_DEFINITION_REPRESENTATION ( #183, #343 ) ;
#87 = EDGE_CURVE ( 'NONE', #239, #311, #31, .T. ) ;
#88 = PLANE ( 'NONE',  #156 ) ;
#89 = CARTESIAN_POINT ( 'NONE',  ( 29.50000000000000000, 0.9374999999999998890, -0.9375000000000000000 ) ) ;
#90 = COLOUR_RGB ( '',0.8666666666666666963, 0.9098039215686274384, 1.000000000000000000 ) ;
#91 = PRODUCT_DEFINITION_FORMATION_WITH_SPECIFIED_SOURCE ( 'ANY', '', #321, .NOT_KNOWN. ) ;
#92 = SURFACE_STYLE_FILL_AREA ( #335 ) ;
#93 = ORIENTED_EDGE ( 'NONE', *, *, #30, .T. ) ;
#94 = ORIENTED_EDGE ( 'NONE', *, *, #65, .F. ) ;
#95 = CARTESIAN_POINT ( 'NONE',  ( 29.50000000000000000, -1.000000000000000000, 0.9999999999999998890 ) ) ;
#96 = VERTEX_POINT ( 'NONE', #23 ) ;
#97 = CARTESIAN_POINT ( 'NONE',  ( -29.50000000000000000, -1.000000000000000000, -1.000000000000000000 ) ) ;
#98 = EDGE_CURVE ( 'NONE', #14, #346, #114, .T. ) ;
#99 = PLANE ( 'NONE',  #80 ) ;
#100 = VECTOR ( 'NONE', #110, 39.37007874015748143 ) ;
#101 = ORIENTED_EDGE ( 'NONE', *, *, #227, .F. ) ;
#102 = FACE_OUTER_BOUND ( 'NONE', #177, .T. ) ;
#103 = ORIENTED_EDGE ( 'NONE', *, *, #87, .F. ) ;
#104 = LINE ( 'NONE', #72, #317 ) ;
#105 = CARTESIAN_POINT ( 'NONE',  ( 29.50000000000000000, 0.9999999999999998890, 0.9999999999999998890 ) ) ;
#106 = ADVANCED_FACE ( 'NONE', ( #306 ), #81, .F. ) ;
#107 = SURFACE_SIDE_STYLE ('',( #92 ) ) ;
#108 = VECTOR ( 'NONE', #8, 39.37007874015748143 ) ;
#109 = DIRECTION ( 'NONE',  ( -1.000000000000000000, 0.000000000000000000, -0.000000000000000000 ) ) ;
#110 = DIRECTION ( 'NONE',  ( -1.000000000000000000, -0.000000000000000000, -0.000000000000000000 ) ) ;
#111 = CARTESIAN_POINT ( 'NONE',  ( 29.50000000000000000, -1.000000000000000000, -1.000000000000000000 ) ) ;
#112 = PRESENTATION_STYLE_ASSIGNMENT (( #243 ) ) ;
#113 = ADVANCED_FACE ( 'NONE', ( #228 ), #249, .T. ) ;
#114 = LINE ( 'NONE', #170, #33 ) ;
#115 = LENGTH_MEASURE_WITH_UNIT ( LENGTH_MEASURE( 0.02539999999999999897 ), #229 );
#116 = DIRECTION ( 'NONE',  ( -1.000000000000000000, -0.000000000000000000, -0.000000000000000000 ) ) ;
#117 = APPLICATION_PROTOCOL_DEFINITION ( 'draft international standard', 'automotive_design', 1998, #301 ) ;
#118 = CARTESIAN_POINT ( 'NONE',  ( 29.50000000000000000, 0.9999999999999998890, 0.9999999999999998890 ) ) ;
#119 = LINE ( 'NONE', #226, #312 ) ;
#120 = ADVANCED_FACE ( 'NONE', ( #192 ), #171, .T. ) ;
#121 = CARTESIAN_POINT ( 'NONE',  ( 29.50000000000000000, 0.9374999999999998890, 0.9374999999999998890 ) ) ;
#122 =( GEOMETRIC_REPRESENTATION_CONTEXT ( 3 ) GLOBAL_UNCERTAINTY_ASSIGNED_CONTEXT ( ( #153 ) ) GLOBAL_UNIT_ASSIGNED_CONTEXT ( ( #323, #167, #241 ) ) REPRESENTATION_CONTEXT ( 'NONE', 'WORKASPACE' ) );
#123 =( GEOMETRIC_REPRESENTATION_CONTEXT ( 3 ) GLOBAL_UNCERTAINTY_ASSIGNED_CONTEXT ( ( #64 ) ) GLOBAL_UNIT_ASSIGNED_CONTEXT ( ( #278, #281, #82 ) ) REPRESENTATION_CONTEXT ( 'NONE', 'WORKASPACE' ) );
#124 = VERTEX_POINT ( 'NONE', #197 ) ;
#125 = ORIENTED_EDGE ( 'NONE', *, *, #203, .T. ) ;
#126 = EDGE_LOOP ( 'NONE', ( #216, #341, #206, #44 ) ) ;
#127 = VECTOR ( 'NONE', #79, 39.37007874015748143 ) ;
#128 = PRESENTATION_LAYER_ASSIGNMENT (  '', '', ( #151 ) ) ;
#129 = LINE ( 'NONE', #237, #26 ) ;
#130 = EDGE_CURVE ( 'NONE', #96, #262, #7, .T. ) ;
#131 = FACE_OUTER_BOUND ( 'NONE', #268, .T. ) ;
#132 = ORIENTED_EDGE ( 'NONE', *, *, #30, .F. ) ;
#133 = AXIS2_PLACEMENT_3D ( 'NONE', #328, #173, #273 ) ;
#134 = EDGE_LOOP ( 'NONE', ( #260, #186, #125, #289 ) ) ;
#135 = EDGE_CURVE ( 'NONE', #238, #214, #225, .T. ) ;
#136 = DIRECTION ( 'NONE',  ( 0.000000000000000000, 0.000000000000000000, 1.000000000000000000 ) ) ;
#137 = DIRECTION ( 'NONE',  ( -1.000000000000000000, 0.000000000000000000, -0.000000000000000000 ) ) ;
#138 = VECTOR ( 'NONE', #270, 39.37007874015748143 ) ;
#139 = LINE ( 'NONE', #85, #188 ) ;
#140 = DIRECTION ( 'NONE',  ( 1.000000000000000000, 0.000000000000000000, 0.000000000000000000 ) ) ;
#141 = EDGE_CURVE ( 'NONE', #124, #342, #220, .T. ) ;
#142 = DIRECTION ( 'NONE',  ( 0.000000000000000000, 0.000000000000000000, 1.000000000000000000 ) ) ;
#143 = LINE ( 'NONE', #252, #16 ) ;
#144 = CARTESIAN_POINT ( 'NONE',  ( -29.50000000000000000, -0.9375000000000000000, -0.9375000000000000000 ) ) ;
#145 = CARTESIAN_POINT ( 'NONE',  ( -29.50000000000000000, 0.000000000000000000, 0.9374999999999998890 ) ) ;
#146 = COLOUR_RGB ( '',0.8666666666666666963, 0.9098039215686274384, 1.000000000000000000 ) ;
#147 = CARTESIAN_POINT ( 'NONE',  ( -29.50000000000000000, -1.000000000000000000, 0.9999999999999998890 ) ) ;
#148 = CARTESIAN_POINT ( 'NONE',  ( 29.50000000000000000, -0.9375000000000000000, 0.000000000000000000 ) ) ;
#149 = ORIENTED_EDGE ( 'NONE', *, *, #98, .T. ) ;
#150 = CARTESIAN_POINT ( 'NONE',  ( 29.50000000000000000, 0.9374999999999998890, 0.000000000000000000 ) ) ;
#151 = STYLED_ITEM ( 'NONE', ( #34 ), #343 ) ;
#152 = ORIENTED_EDGE ( 'NONE', *, *, #219, .F. ) ;
#153 = UNCERTAINTY_MEASURE_WITH_UNIT (LENGTH_MEASURE( 1.000000000000000082E-05 ), #323, 'distance_accuracy_value', 'NONE');
#154 = FACE_OUTER_BOUND ( 'NONE', #19, .T. ) ;
#155 = EDGE_CURVE ( 'NONE', #294, #21, #52, .T. ) ;
#156 = AXIS2_PLACEMENT_3D ( 'NONE', #150, #13, #233 ) ;
#157 = DIRECTION ( 'NONE',  ( 0.000000000000000000, -1.000000000000000000, 0.000000000000000000 ) ) ;
#158 = DIRECTION ( 'NONE',  ( -0.000000000000000000, 1.000000000000000000, 0.000000000000000000 ) ) ;
#159 = EDGE_LOOP ( 'NONE', ( #48, #94, #149, #234 ) ) ;
#160 = DIRECTION ( 'NONE',  ( 0.000000000000000000, 1.000000000000000000, 0.000000000000000000 ) ) ;
#161 = CLOSED_SHELL ( 'NONE', ( #57, #280, #106, #198, #49, #36, #120, #213, #113, #251 ) ) ;
#162 = ORIENTED_EDGE ( 'NONE', *, *, #155, .T. ) ;
#163 = DIRECTION ( 'NONE',  ( 0.000000000000000000, 0.000000000000000000, 1.000000000000000000 ) ) ;
#164 = PLANE ( 'NONE',  #286 ) ;
#165 = FACE_BOUND ( 'NONE', #134, .T. ) ;
#166 = CARTESIAN_POINT ( 'NONE',  ( 29.50000000000000000, 0.9999999999999998890, 0.9999999999999998890 ) ) ;
#167 =( NAMED_UNIT ( * ) PLANE_ANGLE_UNIT ( ) SI_UNIT ( $, .RADIAN. ) );
#168 = EDGE_CURVE ( 'NONE', #309, #324, #143, .T. ) ;
#169 = UNCERTAINTY_MEASURE_WITH_UNIT (LENGTH_MEASURE( 1.000000000000000082E-05 ), #307, 'distance_accuracy_value', 'NONE');
#170 = CARTESIAN_POINT ( 'NONE',  ( 29.50000000000000000, -0.9375000000000000000, 0.000000000000000000 ) ) ;
#171 = PLANE ( 'NONE',  #279 ) ;
#172 = CARTESIAN_POINT ( 'NONE',  ( 29.50000000000000000, -0.9375000000000000000, -0.9375000000000000000 ) ) ;
#173 = DIRECTION ( 'NONE',  ( 1.000000000000000000, 0.000000000000000000, 0.000000000000000000 ) ) ;
#174 =( NAMED_UNIT ( * ) SI_UNIT ( $, .STERADIAN. ) SOLID_ANGLE_UNIT ( ) );
#175 = DIRECTION ( 'NONE',  ( -0.000000000000000000, 1.000000000000000000, 0.000000000000000000 ) ) ;
#176 = DIRECTION ( 'NONE',  ( 0.000000000000000000, 0.000000000000000000, -1.000000000000000000 ) ) ;
#177 = EDGE_LOOP ( 'NONE', ( #314, #347, #313, #132 ) ) ;
#178 = ORIENTED_EDGE ( 'NONE', *, *, #87, .T. ) ;
#179 = EDGE_CURVE ( 'NONE', #96, #309, #1, .T. ) ;
#180 = ORIENTED_EDGE ( 'NONE', *, *, #15, .T. ) ;
#181 = MECHANICAL_DESIGN_GEOMETRIC_PRESENTATION_REPRESENTATION (  '', ( #290 ), #122 ) ;
#182 = ORIENTED_EDGE ( 'NONE', *, *, #219, .T. ) ;
#183 = PRODUCT_DEFINITION_SHAPE ( 'NONE', 'NONE',  #60 ) ;
#184 = EDGE_LOOP ( 'NONE', ( #93, #267, #75, #178 ) ) ;
#185 = PRODUCT_RELATED_PRODUCT_CATEGORY ( 'part', '', ( #321 ) ) ;
#186 = ORIENTED_EDGE ( 'NONE', *, *, #265, .T. ) ;
#187 = CARTESIAN_POINT ( 'NONE',  ( 29.50000000000000000, -1.000000000000000000, -1.000000000000000000 ) ) ;
#188 = VECTOR ( 'NONE', #300, 39.37007874015748143 ) ;
#189 = CARTESIAN_POINT ( 'NONE',  ( 29.50000000000000000, -0.9375000000000000000, 0.9374999999999998890 ) ) ;
#190 = LENGTH_MEASURE_WITH_UNIT ( LENGTH_MEASURE( 0.02539999999999999897 ), #282 );
#191 = DIRECTION ( 'NONE',  ( 0.000000000000000000, 0.000000000000000000, -1.000000000000000000 ) ) ;
#192 = FACE_OUTER_BOUND ( 'NONE', #126, .T. ) ;
#193 = PRODUCT_CONTEXT ( 'NONE', #43, 'mechanical' ) ;
#194 = VECTOR ( 'NONE', #45, 39.37007874015748143 ) ;
#195 = FACE_BOUND ( 'NONE', #41, .T. ) ;
#196 = SURFACE_SIDE_STYLE ('',( #230 ) ) ;
#197 = CARTESIAN_POINT ( 'NONE',  ( -29.50000000000000000, -0.9375000000000000000, 0.9374999999999998890 ) ) ;
#198 = ADVANCED_FACE ( 'NONE', ( #326 ), #331, .F. ) ;
#199 = DIRECTION ( 'NONE',  ( 0.000000000000000000, 0.000000000000000000, -1.000000000000000000 ) ) ;
#200 =( LENGTH_UNIT ( ) NAMED_UNIT ( * ) SI_UNIT ( $, .METRE. ) );
#201 = VECTOR ( 'NONE', #202, 39.37007874015748143 ) ;
#202 = DIRECTION ( 'NONE',  ( 0.000000000000000000, 0.000000000000000000, 1.000000000000000000 ) ) ;
#203 = EDGE_CURVE ( 'NONE', #214, #124, #277, .T. ) ;
#204 = ORIENTED_EDGE ( 'NONE', *, *, #336, .T. ) ;
#205 = CARTESIAN_POINT ( 'NONE',  ( -29.50000000000000000, 0.9374999999999998890, 0.9374999999999998890 ) ) ;
#206 = ORIENTED_EDGE ( 'NONE', *, *, #256, .T. ) ;
#207 = VECTOR ( 'NONE', #116, 39.37007874015748143 ) ;
#208 = EDGE_LOOP ( 'NONE', ( #236, #77, #257, #37 ) ) ;
#209 = ORIENTED_EDGE ( 'NONE', *, *, #256, .F. ) ;
#210 = DIRECTION ( 'NONE',  ( 0.000000000000000000, 1.000000000000000000, 0.000000000000000000 ) ) ;
#211 = AXIS2_PLACEMENT_3D ( 'NONE', #271, #293, #46 ) ;
#212 =( GEOMETRIC_REPRESENTATION_CONTEXT ( 3 ) GLOBAL_UNCERTAINTY_ASSIGNED_CONTEXT ( ( #169 ) ) GLOBAL_UNIT_ASSIGNED_CONTEXT ( ( #307, #255, #174 ) ) REPRESENTATION_CONTEXT ( 'NONE', 'WORKASPACE' ) );
#213 = ADVANCED_FACE ( 'NONE', ( #154 ), #88, .T. ) ;
#214 = VERTEX_POINT ( 'NONE', #205 ) ;
#215 = LINE ( 'NONE', #187, #53 ) ;
#216 = ORIENTED_EDGE ( 'NONE', *, *, #20, .F. ) ;
#217 = ORIENTED_EDGE ( 'NONE', *, *, #98, .F. ) ;
#218 = VECTOR ( 'NONE', #332, 39.37007874015748143 ) ;
#219 = EDGE_CURVE ( 'NONE', #262, #294, #310, .T. ) ;
#220 = LINE ( 'NONE', #5, #325 ) ;
#221 = CARTESIAN_POINT ( 'NONE',  ( -29.50000000000000000, 0.9999999999999998890, 0.9999999999999998890 ) ) ;
#222 = DIRECTION ( 'NONE',  ( -0.000000000000000000, -1.000000000000000000, -0.000000000000000000 ) ) ;
#223 = CARTESIAN_POINT ( 'NONE',  ( 29.50000000000000000, -0.9375000000000000000, 0.9374999999999998890 ) ) ;
#224 = DIRECTION ( 'NONE',  ( -1.000000000000000000, -0.000000000000000000, -0.000000000000000000 ) ) ;
#225 = LINE ( 'NONE', #83, #308 ) ;
#226 = CARTESIAN_POINT ( 'NONE',  ( 29.50000000000000000, -0.9375000000000000000, -0.9375000000000000000 ) ) ;
#227 = EDGE_CURVE ( 'NONE', #340, #238, #261, .T. ) ;
#228 = FACE_OUTER_BOUND ( 'NONE', #291, .T. ) ;
#229 =( LENGTH_UNIT ( ) NAMED_UNIT ( * ) SI_UNIT ( $, .METRE. ) );
#230 = SURFACE_STYLE_FILL_AREA ( #32 ) ;
#231 = FILL_AREA_STYLE_COLOUR ( '', #90 ) ;
#232 = ORIENTED_EDGE ( 'NONE', *, *, #265, .F. ) ;
#233 = DIRECTION ( 'NONE',  ( 0.000000000000000000, -0.000000000000000000, -1.000000000000000000 ) ) ;
#234 = ORIENTED_EDGE ( 'NONE', *, *, #315, .T. ) ;
#235 = CARTESIAN_POINT ( 'NONE',  ( 29.50000000000000000, 0.9999999999999998890, -1.000000000000000000 ) ) ;
#236 = ORIENTED_EDGE ( 'NONE', *, *, #168, .T. ) ;
#237 = CARTESIAN_POINT ( 'NONE',  ( -29.50000000000000000, 0.000000000000000000, -0.9375000000000000000 ) ) ;
#238 = VERTEX_POINT ( 'NONE', #121 ) ;
#239 = VERTEX_POINT ( 'NONE', #235 ) ;
#240 = VECTOR ( 'NONE', #157, 39.37007874015748143 ) ;
#241 =( NAMED_UNIT ( * ) SI_UNIT ( $, .STERADIAN. ) SOLID_ANGLE_UNIT ( ) );
#242 = VECTOR ( 'NONE', #176, 39.37007874015748143 ) ;
#243 = SURFACE_STYLE_USAGE ( .BOTH. , #107 ) ;
#244 = ORIENTED_EDGE ( 'NONE', *, *, #24, .F. ) ;
#245 = CARTESIAN_POINT ( 'NONE',  ( -29.50000000000000000, -1.000000000000000000, -1.000000000000000000 ) ) ;
#246 = CARTESIAN_POINT ( 'NONE',  ( 29.50000000000000000, 0.9999999999999998890, -1.000000000000000000 ) ) ;
#247 = DIRECTION ( 'NONE',  ( 0.000000000000000000, 1.000000000000000000, 0.000000000000000000 ) ) ;
#248 = VECTOR ( 'NONE', #17, 39.37007874015748143 ) ;
#249 = PLANE ( 'NONE',  #38 ) ;
#250 = DIRECTION ( 'NONE',  ( 1.000000000000000000, 0.000000000000000000, -0.000000000000000000 ) ) ;
#251 = ADVANCED_FACE ( 'NONE', ( #62 ), #39, .T. ) ;
#252 = CARTESIAN_POINT ( 'NONE',  ( -29.50000000000000000, -1.000000000000000000, 0.9999999999999998890 ) ) ;
#253 = CARTESIAN_POINT ( 'NONE',  ( 29.50000000000000000, -1.000000000000000000, -1.000000000000000000 ) ) ;
#254 = MANIFOLD_SOLID_BREP ( 'Extrude-Thin1', #161 ) ;
#255 =( NAMED_UNIT ( * ) PLANE_ANGLE_UNIT ( ) SI_UNIT ( $, .RADIAN. ) );
#256 = EDGE_CURVE ( 'NONE', #346, #340, #299, .T. ) ;
#257 = ORIENTED_EDGE ( 'NONE', *, *, #130, .F. ) ;
#258 = VECTOR ( 'NONE', #160, 39.37007874015748143 ) ;
#259 = ORIENTED_EDGE ( 'NONE', *, *, #24, .T. ) ;
#260 = ORIENTED_EDGE ( 'NONE', *, *, #20, .T. ) ;
#261 = LINE ( 'NONE', #283, #201 ) ;
#262 = VERTEX_POINT ( 'NONE', #9 ) ;
#263 = ORIENTED_EDGE ( 'NONE', *, *, #155, .F. ) ;
#264 = LINE ( 'NONE', #18, #194 ) ;
#265 = EDGE_CURVE ( 'NONE', #35, #214, #104, .T. ) ;
#266 = FACE_OUTER_BOUND ( 'NONE', #208, .T. ) ;
#267 = ORIENTED_EDGE ( 'NONE', *, *, #179, .F. ) ;
#268 = EDGE_LOOP ( 'NONE', ( #204, #263, #152, #337 ) ) ;
#269 = LINE ( 'NONE', #74, #100 ) ;
#270 = DIRECTION ( 'NONE',  ( -1.000000000000000000, -0.000000000000000000, -0.000000000000000000 ) ) ;
#271 = CARTESIAN_POINT ( 'NONE',  ( -29.50000000000000000, 0.000000000000000000, 0.000000000000000000 ) ) ;
#272 = PRODUCT_DEFINITION_CONTEXT ( 'detailed design', #301, 'design' ) ;
#273 = DIRECTION ( 'NONE',  ( 0.000000000000000000, 0.000000000000000000, -1.000000000000000000 ) ) ;
#274 = CARTESIAN_POINT ( 'NONE',  ( 29.50000000000000000, 0.000000000000000000, 0.9374999999999998890 ) ) ;
#275 = CARTESIAN_POINT ( 'NONE',  ( 29.50000000000000000, 0.000000000000000000, -0.9375000000000000000 ) ) ;
#276 = DIMENSIONAL_EXPONENTS ( 1.000000000000000000, 0.000000000000000000, 0.000000000000000000, 0.000000000000000000, 0.000000000000000000, 0.000000000000000000, 0.000000000000000000 ) ;
#277 = LINE ( 'NONE', #145, #108 ) ;
#278 =( CONVERSION_BASED_UNIT ( 'INCH', #115 ) LENGTH_UNIT ( ) NAMED_UNIT ( #276 ) );
#279 = AXIS2_PLACEMENT_3D ( 'NONE', #275, #27, #250 ) ;
#280 = ADVANCED_FACE ( 'NONE', ( #102, #165 ), #320, .F. ) ;
#281 =( NAMED_UNIT ( * ) PLANE_ANGLE_UNIT ( ) SI_UNIT ( $, .RADIAN. ) );
#282 =( LENGTH_UNIT ( ) NAMED_UNIT ( * ) SI_UNIT ( $, .METRE. ) );
#283 = CARTESIAN_POINT ( 'NONE',  ( 29.50000000000000000, 0.9374999999999998890, 0.000000000000000000 ) ) ;
#284 = DIRECTION ( 'NONE',  ( 0.000000000000000000, 0.000000000000000000, 1.000000000000000000 ) ) ;
#285 = ORIENTED_EDGE ( 'NONE', *, *, #135, .T. ) ;
#286 = AXIS2_PLACEMENT_3D ( 'NONE', #330, #6, #137 ) ;
#287 = DIRECTION ( 'NONE',  ( 0.000000000000000000, 0.000000000000000000, -1.000000000000000000 ) ) ;
#288 = EDGE_CURVE ( 'NONE', #294, #239, #215, .T. ) ;
#289 = ORIENTED_EDGE ( 'NONE', *, *, #141, .T. ) ;
#290 = STYLED_ITEM ( 'NONE', ( #112 ), #254 ) ;
#291 = EDGE_LOOP ( 'NONE', ( #50, #295, #259, #47 ) ) ;
#292 = CARTESIAN_POINT ( 'NONE',  ( -29.50000000000000000, 0.9374999999999998890, -0.9375000000000000000 ) ) ;
#293 = DIRECTION ( 'NONE',  ( 1.000000000000000000, 0.000000000000000000, 0.000000000000000000 ) ) ;
#294 = VERTEX_POINT ( 'NONE', #3 ) ;
#295 = ORIENTED_EDGE ( 'NONE', *, *, #135, .F. ) ;
#296 = EDGE_CURVE ( 'NONE', #262, #324, #269, .T. ) ;
#297 = LINE ( 'NONE', #245, #248 ) ;
#298 = DIRECTION ( 'NONE',  ( 1.000000000000000000, 0.000000000000000000, -0.000000000000000000 ) ) ;
#299 = LINE ( 'NONE', #51, #258 ) ;
#300 = DIRECTION ( 'NONE',  ( -1.000000000000000000, -0.000000000000000000, -0.000000000000000000 ) ) ;
#301 = APPLICATION_CONTEXT ( 'automotive_design' ) ;
#302 = DIRECTION ( 'NONE',  ( 0.000000000000000000, 0.000000000000000000, -1.000000000000000000 ) ) ;
#303 = LENGTH_MEASURE_WITH_UNIT ( LENGTH_MEASURE( 0.02539999999999999897 ), #200 );
#304 = DIRECTION ( 'NONE',  ( 0.000000000000000000, -1.000000000000000000, 0.000000000000000000 ) ) ;
#305 = DIMENSIONAL_EXPONENTS ( 1.000000000000000000, 0.000000000000000000, 0.000000000000000000, 0.000000000000000000, 0.000000000000000000, 0.000000000000000000, 0.000000000000000000 ) ;
#306 = FACE_OUTER_BOUND ( 'NONE', #345, .T. ) ;
#307 =( CONVERSION_BASED_UNIT ( 'INCH', #303 ) LENGTH_UNIT ( ) NAMED_UNIT ( #305 ) );
#308 = VECTOR ( 'NONE', #56, 39.37007874015748143 ) ;
#309 = VERTEX_POINT ( 'NONE', #221 ) ;
#310 = LINE ( 'NONE', #95, #2 ) ;
#311 = VERTEX_POINT ( 'NONE', #327 ) ;
#312 = VECTOR ( 'NONE', #224, 39.37007874015748143 ) ;
#313 = ORIENTED_EDGE ( 'NONE', *, *, #168, .F. ) ;
#314 = ORIENTED_EDGE ( 'NONE', *, *, #15, .F. ) ;
#315 = EDGE_CURVE ( 'NONE', #346, #342, #119, .T. ) ;
#316 = LINE ( 'NONE', #67, #240 ) ;
#317 = VECTOR ( 'NONE', #163, 39.37007874015748143 ) ;
#318 = CARTESIAN_POINT ( 'NONE',  ( 29.50000000000000000, -1.000000000000000000, 0.9999999999999998890 ) ) ;
#319 = ORIENTED_EDGE ( 'NONE', *, *, #288, .T. ) ;
#320 = PLANE ( 'NONE',  #211 ) ;
#321 = PRODUCT ( 'WCP-0083 Rev1', 'WCP-0083 Rev1', '', ( #193 ) ) ;
#322 = ORIENTED_EDGE ( 'NONE', *, *, #70, .F. ) ;
#323 =( CONVERSION_BASED_UNIT ( 'INCH', #190 ) LENGTH_UNIT ( ) NAMED_UNIT ( #66 ) );
#324 = VERTEX_POINT ( 'NONE', #29 ) ;
#325 = VECTOR ( 'NONE', #199, 39.37007874015748143 ) ;
#326 = FACE_OUTER_BOUND ( 'NONE', #184, .T. ) ;
#327 = CARTESIAN_POINT ( 'NONE',  ( -29.50000000000000000, 0.9999999999999998890, -1.000000000000000000 ) ) ;
#328 = CARTESIAN_POINT ( 'NONE',  ( 29.50000000000000000, 0.000000000000000000, 0.000000000000000000 ) ) ;
#329 = APPLICATION_PROTOCOL_DEFINITION ( 'draft international standard', 'automotive_design', 1998, #43 ) ;
#330 = CARTESIAN_POINT ( 'NONE',  ( 29.50000000000000000, -1.000000000000000000, 0.9999999999999998890 ) ) ;
#331 = PLANE ( 'NONE',  #11 ) ;
#332 = DIRECTION ( 'NONE',  ( -1.000000000000000000, -0.000000000000000000, -0.000000000000000000 ) ) ;
#333 = CARTESIAN_POINT ( 'NONE',  ( 0.000000000000000000, 0.000000000000000000, 0.000000000000000000 ) ) ;
#334 = PRESENTATION_LAYER_ASSIGNMENT (  '', '', ( #290 ) ) ;
#335 = FILL_AREA_STYLE ('',( #231 ) ) ;
#336 = EDGE_CURVE ( 'NONE', #324, #21, #55, .T. ) ;
#337 = ORIENTED_EDGE ( 'NONE', *, *, #296, .T. ) ;
#338 = VECTOR ( 'NONE', #136, 39.37007874015748143 ) ;
#339 = DIRECTION ( 'NONE',  ( 0.000000000000000000, -0.000000000000000000, 1.000000000000000000 ) ) ;
#340 = VERTEX_POINT ( 'NONE', #89 ) ;
#341 = ORIENTED_EDGE ( 'NONE', *, *, #315, .F. ) ;
#342 = VERTEX_POINT ( 'NONE', #144 ) ;
#343 = ADVANCED_BREP_SHAPE_REPRESENTATION ( 'WCP-0083 Rev1', ( #254, #69 ), #123 ) ;
#344 = MECHANICAL_DESIGN_GEOMETRIC_PRESENTATION_REPRESENTATION (  '', ( #151 ), #212 ) ;
#345 = EDGE_LOOP ( 'NONE', ( #180, #103, #40, #162 ) ) ;
#346 = VERTEX_POINT ( 'NONE', #172 ) ;
#347 = ORIENTED_EDGE ( 'NONE', *, *, #336, .F. ) ;
ENDSEC;
END-ISO-10303-21;
