ISO-10303-21;
HEADER;
FILE_DESCRIPTION (( 'STEP AP214' ),
    '1' );
FILE_NAME ('WCP-0082 Rev1.STEP',
    '2021-04-27T07:35:54',
    ( '' ),
    ( '' ),
    'SwSTEP 2.0',
    'SolidWorks 2020',
    '' );
FILE_SCHEMA (( 'AUTOMOTIVE_DESIGN' ));
ENDSEC;

DATA;
#1 = LINE ( 'NONE', #132, #47 ) ;
#2 = AXIS2_PLACEMENT_3D ( 'NONE', #111, #185, #161 ) ;
#3 = LINE ( 'NONE', #265, #128 ) ;
#4 = LINE ( 'NONE', #137, #318 ) ;
#5 = CARTESIAN_POINT ( 'NONE',  ( 29.50000000000000000, 0.9999999999999998890, 0.5000000000000001110 ) ) ;
#6 = LINE ( 'NONE', #208, #134 ) ;
#7 = SURFACE_STYLE_USAGE ( .BOTH. , #194 ) ;
#8 = VECTOR ( 'NONE', #60, 39.37007874015748143 ) ;
#9 = CARTESIAN_POINT ( 'NONE',  ( 29.50000000000000000, 0.000000000000000000, -0.3749999999999999445 ) ) ;
#10 = PRODUCT ( 'WCP-0082 Rev1', 'WCP-0082 Rev1', '', ( #136 ) ) ;
#11 = PRESENTATION_STYLE_ASSIGNMENT (( #7 ) ) ;
#12 = ORIENTED_EDGE ( 'NONE', *, *, #126, .T. ) ;
#13 = ORIENTED_EDGE ( 'NONE', *, *, #244, .F. ) ;
#14 = MECHANICAL_DESIGN_GEOMETRIC_PRESENTATION_REPRESENTATION (  '', ( #65 ), #56 ) ;
#15 = PRODUCT_DEFINITION_CONTEXT ( 'detailed design', #160, 'design' ) ;
#16 = CARTESIAN_POINT ( 'NONE',  ( 29.50000000000000000, -1.000000000000000000, 0.5000000000000001110 ) ) ;
#17 = ORIENTED_EDGE ( 'NONE', *, *, #61, .F. ) ;
#18 = DIRECTION ( 'NONE',  ( 0.000000000000000000, 1.000000000000000000, 0.000000000000000000 ) ) ;
#19 = VECTOR ( 'NONE', #91, 39.37007874015748143 ) ;
#20 = ORIENTED_EDGE ( 'NONE', *, *, #309, .T. ) ;
#21 = ORIENTED_EDGE ( 'NONE', *, *, #61, .T. ) ;
#22 = LINE ( 'NONE', #340, #176 ) ;
#23 = EDGE_CURVE ( 'NONE', #317, #229, #22, .T. ) ;
#24 = EDGE_LOOP ( 'NONE', ( #125, #119, #342, #21 ) ) ;
#25 = FACE_OUTER_BOUND ( 'NONE', #42, .T. ) ;
#26 = ORIENTED_EDGE ( 'NONE', *, *, #279, .F. ) ;
#27 = ADVANCED_BREP_SHAPE_REPRESENTATION ( 'WCP-0082 Rev1', ( #284, #251 ), #141 ) ;
#28 = DIRECTION ( 'NONE',  ( 0.000000000000000000, -0.000000000000000000, -1.000000000000000000 ) ) ;
#29 = FACE_OUTER_BOUND ( 'NONE', #222, .T. ) ;
#30 = VECTOR ( 'NONE', #32, 39.37007874015748143 ) ;
#31 = FACE_BOUND ( 'NONE', #37, .T. ) ;
#32 = DIRECTION ( 'NONE',  ( -1.000000000000000000, -0.000000000000000000, -0.000000000000000000 ) ) ;
#33 = FILL_AREA_STYLE ('',( #138 ) ) ;
#34 = CARTESIAN_POINT ( 'NONE',  ( -29.50000000000000000, 0.8749999999999997780, 0.3750000000000001110 ) ) ;
#35 = CARTESIAN_POINT ( 'NONE',  ( 29.50000000000000000, -1.000000000000000000, -0.4999999999999999445 ) ) ;
#36 = DIRECTION ( 'NONE',  ( 0.000000000000000000, 0.000000000000000000, -1.000000000000000000 ) ) ;
#37 = EDGE_LOOP ( 'NONE', ( #124, #103, #39, #69 ) ) ;
#38 = PRODUCT_RELATED_PRODUCT_CATEGORY ( 'part', '', ( #10 ) ) ;
#39 = ORIENTED_EDGE ( 'NONE', *, *, #344, .F. ) ;
#40 = ORIENTED_EDGE ( 'NONE', *, *, #167, .F. ) ;
#41 = VECTOR ( 'NONE', #88, 39.37007874015748143 ) ;
#42 = EDGE_LOOP ( 'NONE', ( #74, #149, #259, #184 ) ) ;
#43 = ADVANCED_FACE ( 'NONE', ( #200 ), #315, .T. ) ;
#44 = LINE ( 'NONE', #313, #335 ) ;
#45 = DIRECTION ( 'NONE',  ( 0.000000000000000000, -1.000000000000000000, 0.000000000000000000 ) ) ;
#46 = CARTESIAN_POINT ( 'NONE',  ( -29.50000000000000000, -0.8750000000000000000, -0.3749999999999999445 ) ) ;
#47 = VECTOR ( 'NONE', #186, 39.37007874015748143 ) ;
#48 = CARTESIAN_POINT ( 'NONE',  ( 29.50000000000000000, 0.8749999999999997780, 0.000000000000000000 ) ) ;
#49 = FACE_OUTER_BOUND ( 'NONE', #196, .T. ) ;
#50 = ORIENTED_EDGE ( 'NONE', *, *, #167, .T. ) ;
#51 = CARTESIAN_POINT ( 'NONE',  ( -29.50000000000000000, 0.000000000000000000, 0.000000000000000000 ) ) ;
#52 = EDGE_CURVE ( 'NONE', #232, #225, #44, .T. ) ;
#53 = LINE ( 'NONE', #163, #82 ) ;
#54 = DIRECTION ( 'NONE',  ( 1.000000000000000000, 0.000000000000000000, 0.000000000000000000 ) ) ;
#55 =( CONVERSION_BASED_UNIT ( 'INCH', #169 ) LENGTH_UNIT ( ) NAMED_UNIT ( #299 ) );
#56 =( GEOMETRIC_REPRESENTATION_CONTEXT ( 3 ) GLOBAL_UNCERTAINTY_ASSIGNED_CONTEXT ( ( #293 ) ) GLOBAL_UNIT_ASSIGNED_CONTEXT ( ( #55, #187, #104 ) ) REPRESENTATION_CONTEXT ( 'NONE', 'WORKASPACE' ) );
#57 = LINE ( 'NONE', #35, #280 ) ;
#58 = DIRECTION ( 'NONE',  ( 0.000000000000000000, 0.000000000000000000, 1.000000000000000000 ) ) ;
#59 = CARTESIAN_POINT ( 'NONE',  ( 29.50000000000000000, 0.8749999999999997780, 0.3750000000000001110 ) ) ;
#60 = DIRECTION ( 'NONE',  ( -1.000000000000000000, -0.000000000000000000, -0.000000000000000000 ) ) ;
#61 = EDGE_CURVE ( 'NONE', #308, #153, #236, .T. ) ;
#62 = CARTESIAN_POINT ( 'NONE',  ( 29.50000000000000000, -1.000000000000000000, 0.5000000000000001110 ) ) ;
#63 = CARTESIAN_POINT ( 'NONE',  ( 29.50000000000000000, -0.8750000000000000000, 0.000000000000000000 ) ) ;
#64 = FILL_AREA_STYLE ('',( #306 ) ) ;
#65 = STYLED_ITEM ( 'NONE', ( #333 ), #284 ) ;
#66 = CARTESIAN_POINT ( 'NONE',  ( -29.50000000000000000, 0.000000000000000000, -0.3749999999999999445 ) ) ;
#67 =( NAMED_UNIT ( * ) SI_UNIT ( $, .STERADIAN. ) SOLID_ANGLE_UNIT ( ) );
#68 = EDGE_CURVE ( 'NONE', #220, #278, #179, .T. ) ;
#69 = ORIENTED_EDGE ( 'NONE', *, *, #68, .F. ) ;
#70 = VERTEX_POINT ( 'NONE', #154 ) ;
#71 = PRODUCT_DEFINITION_FORMATION_WITH_SPECIFIED_SOURCE ( 'ANY', '', #10, .NOT_KNOWN. ) ;
#72 = VERTEX_POINT ( 'NONE', #234 ) ;
#73 = VERTEX_POINT ( 'NONE', #345 ) ;
#74 = ORIENTED_EDGE ( 'NONE', *, *, #23, .T. ) ;
#75 = PRESENTATION_LAYER_ASSIGNMENT (  '', '', ( #65 ) ) ;
#76 = VECTOR ( 'NONE', #252, 39.37007874015748143 ) ;
#77 = ORIENTED_EDGE ( 'NONE', *, *, #52, .T. ) ;
#78 = DIRECTION ( 'NONE',  ( -1.000000000000000000, -0.000000000000000000, -0.000000000000000000 ) ) ;
#79 = PLANE ( 'NONE',  #101 ) ;
#80 = EDGE_LOOP ( 'NONE', ( #156, #253, #40, #347 ) ) ;
#81 = DIRECTION ( 'NONE',  ( 0.000000000000000000, -0.000000000000000000, -1.000000000000000000 ) ) ;
#82 = VECTOR ( 'NONE', #109, 39.37007874015748143 ) ;
#83 = DIRECTION ( 'NONE',  ( 0.000000000000000000, -1.000000000000000000, 0.000000000000000000 ) ) ;
#84 = EDGE_CURVE ( 'NONE', #72, #220, #105, .T. ) ;
#85 = LINE ( 'NONE', #289, #120 ) ;
#86 = CARTESIAN_POINT ( 'NONE',  ( -29.50000000000000000, 0.9999999999999998890, 0.5000000000000001110 ) ) ;
#87 = COLOUR_RGB ( '',0.8666666666666666963, 0.9098039215686274384, 1.000000000000000000 ) ;
#88 = DIRECTION ( 'NONE',  ( 0.000000000000000000, 1.000000000000000000, 0.000000000000000000 ) ) ;
#89 =( NAMED_UNIT ( * ) PLANE_ANGLE_UNIT ( ) SI_UNIT ( $, .RADIAN. ) );
#90 = DIRECTION ( 'NONE',  ( 0.000000000000000000, 0.000000000000000000, 1.000000000000000000 ) ) ;
#91 = DIRECTION ( 'NONE',  ( 0.000000000000000000, 0.000000000000000000, 1.000000000000000000 ) ) ;
#92 = FACE_OUTER_BOUND ( 'NONE', #93, .T. ) ;
#93 = EDGE_LOOP ( 'NONE', ( #26, #202, #261, #205 ) ) ;
#94 = MECHANICAL_DESIGN_GEOMETRIC_PRESENTATION_REPRESENTATION (  '', ( #336 ), #330 ) ;
#95 = ORIENTED_EDGE ( 'NONE', *, *, #254, .F. ) ;
#96 = EDGE_CURVE ( 'NONE', #99, #303, #1, .T. ) ;
#97 = ORIENTED_EDGE ( 'NONE', *, *, #279, .T. ) ;
#98 = VECTOR ( 'NONE', #170, 39.37007874015748143 ) ;
#99 = VERTEX_POINT ( 'NONE', #116 ) ;
#100 = ORIENTED_EDGE ( 'NONE', *, *, #314, .T. ) ;
#101 = AXIS2_PLACEMENT_3D ( 'NONE', #180, #239, #81 ) ;
#102 = EDGE_CURVE ( 'NONE', #70, #150, #291, .T. ) ;
#103 = ORIENTED_EDGE ( 'NONE', *, *, #171, .F. ) ;
#104 =( NAMED_UNIT ( * ) SI_UNIT ( $, .STERADIAN. ) SOLID_ANGLE_UNIT ( ) );
#105 = LINE ( 'NONE', #48, #19 ) ;
#106 = EDGE_LOOP ( 'NONE', ( #97, #100, #77, #197 ) ) ;
#107 = CARTESIAN_POINT ( 'NONE',  ( 29.50000000000000000, -1.000000000000000000, 0.5000000000000001110 ) ) ;
#108 = CARTESIAN_POINT ( 'NONE',  ( 29.50000000000000000, 0.9999999999999998890, 0.5000000000000001110 ) ) ;
#109 = DIRECTION ( 'NONE',  ( -0.000000000000000000, -1.000000000000000000, -0.000000000000000000 ) ) ;
#110 = ADVANCED_FACE ( 'NONE', ( #319 ), #263, .T. ) ;
#111 = CARTESIAN_POINT ( 'NONE',  ( 29.50000000000000000, -0.8750000000000000000, 0.000000000000000000 ) ) ;
#112 =( LENGTH_UNIT ( ) NAMED_UNIT ( * ) SI_UNIT ( $, .METRE. ) );
#113 = AXIS2_PLACEMENT_3D ( 'NONE', #164, #270, #28 ) ;
#114 = CARTESIAN_POINT ( 'NONE',  ( -29.50000000000000000, -0.8750000000000000000, 0.3750000000000001110 ) ) ;
#115 =( LENGTH_UNIT ( ) NAMED_UNIT ( * ) SI_UNIT ( $, .METRE. ) );
#116 = CARTESIAN_POINT ( 'NONE',  ( 29.50000000000000000, -0.8750000000000000000, -0.3749999999999999445 ) ) ;
#117 = PLANE ( 'NONE',  #305 ) ;
#118 = EDGE_CURVE ( 'NONE', #308, #70, #57, .T. ) ;
#119 = ORIENTED_EDGE ( 'NONE', *, *, #339, .F. ) ;
#120 = VECTOR ( 'NONE', #217, 39.37007874015748143 ) ;
#121 = ORIENTED_EDGE ( 'NONE', *, *, #344, .T. ) ;
#122 = EDGE_CURVE ( 'NONE', #286, #256, #85, .T. ) ;
#123 = SURFACE_STYLE_USAGE ( .BOTH. , #147 ) ;
#124 = ORIENTED_EDGE ( 'NONE', *, *, #84, .F. ) ;
#125 = ORIENTED_EDGE ( 'NONE', *, *, #146, .T. ) ;
#126 = EDGE_CURVE ( 'NONE', #150, #286, #294, .T. ) ;
#127 = ORIENTED_EDGE ( 'NONE', *, *, #274, .T. ) ;
#128 = VECTOR ( 'NONE', #157, 39.37007874015748143 ) ;
#129 = ORIENTED_EDGE ( 'NONE', *, *, #178, .T. ) ;
#130 = CARTESIAN_POINT ( 'NONE',  ( 29.50000000000000000, -0.8750000000000000000, 0.3750000000000001110 ) ) ;
#131 = DIRECTION ( 'NONE',  ( 0.000000000000000000, 0.000000000000000000, 1.000000000000000000 ) ) ;
#132 = CARTESIAN_POINT ( 'NONE',  ( 29.50000000000000000, -0.8750000000000000000, -0.3749999999999999445 ) ) ;
#133 = DIRECTION ( 'NONE',  ( -1.000000000000000000, 0.000000000000000000, -0.000000000000000000 ) ) ;
#134 = VECTOR ( 'NONE', #297, 39.37007874015748143 ) ;
#135 = PLANE ( 'NONE',  #272 ) ;
#136 = PRODUCT_CONTEXT ( 'NONE', #216, 'mechanical' ) ;
#137 = CARTESIAN_POINT ( 'NONE',  ( 29.50000000000000000, 0.8749999999999997780, -0.3749999999999999445 ) ) ;
#138 = FILL_AREA_STYLE_COLOUR ( '', #201 ) ;
#139 = DIRECTION ( 'NONE',  ( -0.000000000000000000, 1.000000000000000000, 0.000000000000000000 ) ) ;
#140 = CARTESIAN_POINT ( 'NONE',  ( -29.50000000000000000, -1.000000000000000000, -0.4999999999999999445 ) ) ;
#141 =( GEOMETRIC_REPRESENTATION_CONTEXT ( 3 ) GLOBAL_UNCERTAINTY_ASSIGNED_CONTEXT ( ( #267 ) ) GLOBAL_UNIT_ASSIGNED_CONTEXT ( ( #325, #89, #321 ) ) REPRESENTATION_CONTEXT ( 'NONE', 'WORKASPACE' ) );
#142 = DIRECTION ( 'NONE',  ( 0.000000000000000000, 0.000000000000000000, 1.000000000000000000 ) ) ;
#143 = LINE ( 'NONE', #198, #76 ) ;
#144 = LINE ( 'NONE', #16, #221 ) ;
#145 = ORIENTED_EDGE ( 'NONE', *, *, #254, .T. ) ;
#146 = EDGE_CURVE ( 'NONE', #153, #317, #242, .T. ) ;
#147 = SURFACE_SIDE_STYLE ('',( #227 ) ) ;
#148 = EDGE_LOOP ( 'NONE', ( #255, #95, #203, #20 ) ) ;
#149 = ORIENTED_EDGE ( 'NONE', *, *, #174, .F. ) ;
#150 = VERTEX_POINT ( 'NONE', #108 ) ;
#151 = AXIS2_PLACEMENT_3D ( 'NONE', #311, #257, #282 ) ;
#152 = ORIENTED_EDGE ( 'NONE', *, *, #262, .F. ) ;
#153 = VERTEX_POINT ( 'NONE', #211 ) ;
#154 = CARTESIAN_POINT ( 'NONE',  ( 29.50000000000000000, 0.9999999999999998890, -0.4999999999999999445 ) ) ;
#155 = CARTESIAN_POINT ( 'NONE',  ( 29.50000000000000000, -1.000000000000000000, -0.4999999999999999445 ) ) ;
#156 = ORIENTED_EDGE ( 'NONE', *, *, #146, .F. ) ;
#157 = DIRECTION ( 'NONE',  ( 0.000000000000000000, 0.000000000000000000, 1.000000000000000000 ) ) ;
#158 = LINE ( 'NONE', #264, #329 ) ;
#159 = FACE_BOUND ( 'NONE', #106, .T. ) ;
#160 = APPLICATION_CONTEXT ( 'automotive_design' ) ;
#161 = DIRECTION ( 'NONE',  ( 0.000000000000000000, -0.000000000000000000, 1.000000000000000000 ) ) ;
#162 = VECTOR ( 'NONE', #90, 39.37007874015748143 ) ;
#163 = CARTESIAN_POINT ( 'NONE',  ( -29.50000000000000000, -1.000000000000000000, 0.5000000000000001110 ) ) ;
#164 = CARTESIAN_POINT ( 'NONE',  ( 29.50000000000000000, 0.8749999999999997780, 0.000000000000000000 ) ) ;
#165 = LENGTH_MEASURE_WITH_UNIT ( LENGTH_MEASURE( 0.02539999999999999897 ), #112 );
#166 = CARTESIAN_POINT ( 'NONE',  ( 29.50000000000000000, -1.000000000000000000, -0.4999999999999999445 ) ) ;
#167 = EDGE_CURVE ( 'NONE', #229, #256, #53, .T. ) ;
#168 = AXIS2_PLACEMENT_3D ( 'NONE', #166, #271, #277 ) ;
#169 = LENGTH_MEASURE_WITH_UNIT ( LENGTH_MEASURE( 0.02539999999999999897 ), #301 );
#170 = DIRECTION ( 'NONE',  ( 0.000000000000000000, 0.000000000000000000, -1.000000000000000000 ) ) ;
#171 = EDGE_CURVE ( 'NONE', #99, #72, #322, .T. ) ;
#172 = AXIS2_PLACEMENT_3D ( 'NONE', #283, #343, #133 ) ;
#173 = ORIENTED_EDGE ( 'NONE', *, *, #118, .T. ) ;
#174 = EDGE_CURVE ( 'NONE', #150, #229, #6, .T. ) ;
#175 = ORIENTED_EDGE ( 'NONE', *, *, #122, .T. ) ;
#176 = VECTOR ( 'NONE', #131, 39.37007874015748143 ) ;
#177 = ORIENTED_EDGE ( 'NONE', *, *, #274, .F. ) ;
#178 = EDGE_CURVE ( 'NONE', #256, #153, #158, .T. ) ;
#179 = LINE ( 'NONE', #285, #341 ) ;
#180 = CARTESIAN_POINT ( 'NONE',  ( 29.50000000000000000, 0.9999999999999998890, 0.5000000000000001110 ) ) ;
#181 = ORIENTED_EDGE ( 'NONE', *, *, #309, .F. ) ;
#182 = CARTESIAN_POINT ( 'NONE',  ( 29.50000000000000000, 0.000000000000000000, 0.000000000000000000 ) ) ;
#183 = PRESENTATION_LAYER_ASSIGNMENT (  '', '', ( #336 ) ) ;
#184 = ORIENTED_EDGE ( 'NONE', *, *, #339, .T. ) ;
#185 = DIRECTION ( 'NONE',  ( -0.000000000000000000, 1.000000000000000000, 0.000000000000000000 ) ) ;
#186 = DIRECTION ( 'NONE',  ( -1.000000000000000000, -0.000000000000000000, -0.000000000000000000 ) ) ;
#187 =( NAMED_UNIT ( * ) PLANE_ANGLE_UNIT ( ) SI_UNIT ( $, .RADIAN. ) );
#188 = DIRECTION ( 'NONE',  ( 1.000000000000000000, 0.000000000000000000, -0.000000000000000000 ) ) ;
#189 = DIRECTION ( 'NONE',  ( 0.000000000000000000, 0.000000000000000000, -1.000000000000000000 ) ) ;
#190 = CARTESIAN_POINT ( 'NONE',  ( 29.50000000000000000, -1.000000000000000000, 0.5000000000000001110 ) ) ;
#191 = SURFACE_STYLE_FILL_AREA ( #33 ) ;
#192 = DIRECTION ( 'NONE',  ( 0.000000000000000000, 1.000000000000000000, 0.000000000000000000 ) ) ;
#193 = DIRECTION ( 'NONE',  ( 0.000000000000000000, 0.000000000000000000, -1.000000000000000000 ) ) ;
#194 = SURFACE_SIDE_STYLE ('',( #191 ) ) ;
#195 = EDGE_LOOP ( 'NONE', ( #334, #13, #328, #145 ) ) ;
#196 = EDGE_LOOP ( 'NONE', ( #173, #230, #12, #127 ) ) ;
#197 = ORIENTED_EDGE ( 'NONE', *, *, #262, .T. ) ;
#198 = CARTESIAN_POINT ( 'NONE',  ( -29.50000000000000000, -0.8750000000000000000, 0.000000000000000000 ) ) ;
#199 = EDGE_LOOP ( 'NONE', ( #50, #337, #281, #307 ) ) ;
#200 = FACE_OUTER_BOUND ( 'NONE', #148, .T. ) ;
#201 = COLOUR_RGB ( '',0.8666666666666666963, 0.9098039215686274384, 1.000000000000000000 ) ;
#202 = ORIENTED_EDGE ( 'NONE', *, *, #96, .F. ) ;
#203 = ORIENTED_EDGE ( 'NONE', *, *, #68, .T. ) ;
#204 = FACE_OUTER_BOUND ( 'NONE', #80, .T. ) ;
#205 = ORIENTED_EDGE ( 'NONE', *, *, #244, .T. ) ;
#206 = FACE_OUTER_BOUND ( 'NONE', #199, .T. ) ;
#207 = VECTOR ( 'NONE', #18, 39.37007874015748143 ) ;
#208 = CARTESIAN_POINT ( 'NONE',  ( 29.50000000000000000, 0.9999999999999998890, 0.5000000000000001110 ) ) ;
#209 = LINE ( 'NONE', #320, #30 ) ;
#210 = CARTESIAN_POINT ( 'NONE',  ( 29.50000000000000000, 0.000000000000000000, -0.3749999999999999445 ) ) ;
#211 = CARTESIAN_POINT ( 'NONE',  ( -29.50000000000000000, -1.000000000000000000, -0.4999999999999999445 ) ) ;
#212 = LENGTH_MEASURE_WITH_UNIT ( LENGTH_MEASURE( 0.02539999999999999897 ), #115 );
#213 = VECTOR ( 'NONE', #247, 39.37007874015748143 ) ;
#214 = FACE_OUTER_BOUND ( 'NONE', #24, .T. ) ;
#215 = LINE ( 'NONE', #273, #8 ) ;
#216 = APPLICATION_CONTEXT ( 'automotive_design' ) ;
#217 = DIRECTION ( 'NONE',  ( -1.000000000000000000, -0.000000000000000000, -0.000000000000000000 ) ) ;
#218 = DIMENSIONAL_EXPONENTS ( 1.000000000000000000, 0.000000000000000000, 0.000000000000000000, 0.000000000000000000, 0.000000000000000000, 0.000000000000000000, 0.000000000000000000 ) ;
#219 =( NAMED_UNIT ( * ) PLANE_ANGLE_UNIT ( ) SI_UNIT ( $, .RADIAN. ) );
#220 = VERTEX_POINT ( 'NONE', #59 ) ;
#221 = VECTOR ( 'NONE', #193, 39.37007874015748143 ) ;
#222 = EDGE_LOOP ( 'NONE', ( #129, #17, #177, #175 ) ) ;
#223 = ADVANCED_FACE ( 'NONE', ( #268 ), #326, .T. ) ;
#224 = LINE ( 'NONE', #66, #207 ) ;
#225 = VERTEX_POINT ( 'NONE', #114 ) ;
#226 = CARTESIAN_POINT ( 'NONE',  ( 29.50000000000000000, -0.8750000000000000000, 0.3750000000000001110 ) ) ;
#227 = SURFACE_STYLE_FILL_AREA ( #64 ) ;
#228 = ORIENTED_EDGE ( 'NONE', *, *, #96, .T. ) ;
#229 = VERTEX_POINT ( 'NONE', #86 ) ;
#230 = ORIENTED_EDGE ( 'NONE', *, *, #102, .T. ) ;
#231 = DIRECTION ( 'NONE',  ( 1.000000000000000000, 0.000000000000000000, 0.000000000000000000 ) ) ;
#232 = VERTEX_POINT ( 'NONE', #34 ) ;
#233 = VECTOR ( 'NONE', #238, 39.37007874015748143 ) ;
#234 = CARTESIAN_POINT ( 'NONE',  ( 29.50000000000000000, 0.8749999999999997780, -0.3749999999999999445 ) ) ;
#235 = DIRECTION ( 'NONE',  ( -1.000000000000000000, -0.000000000000000000, -0.000000000000000000 ) ) ;
#236 = LINE ( 'NONE', #287, #266 ) ;
#237 = ADVANCED_FACE ( 'NONE', ( #29 ), #135, .F. ) ;
#238 = DIRECTION ( 'NONE',  ( -0.000000000000000000, -1.000000000000000000, -0.000000000000000000 ) ) ;
#239 = DIRECTION ( 'NONE',  ( 0.000000000000000000, -1.000000000000000000, 0.000000000000000000 ) ) ;
#240 = DIRECTION ( 'NONE',  ( 0.000000000000000000, -0.000000000000000000, 1.000000000000000000 ) ) ;
#241 = SHAPE_DEFINITION_REPRESENTATION ( #298, #27 ) ;
#242 = LINE ( 'NONE', #140, #213 ) ;
#243 = APPLICATION_PROTOCOL_DEFINITION ( 'draft international standard', 'automotive_design', 1998, #216 ) ;
#244 = EDGE_CURVE ( 'NONE', #72, #73, #4, .T. ) ;
#245 = CARTESIAN_POINT ( 'NONE',  ( -29.50000000000000000, -1.000000000000000000, 0.5000000000000001110 ) ) ;
#246 = APPLICATION_PROTOCOL_DEFINITION ( 'draft international standard', 'automotive_design', 1998, #160 ) ;
#247 = DIRECTION ( 'NONE',  ( 0.000000000000000000, 1.000000000000000000, 0.000000000000000000 ) ) ;
#248 = DIRECTION ( 'NONE',  ( 1.000000000000000000, 0.000000000000000000, 0.000000000000000000 ) ) ;
#249 = DIMENSIONAL_EXPONENTS ( 1.000000000000000000, 0.000000000000000000, 0.000000000000000000, 0.000000000000000000, 0.000000000000000000, 0.000000000000000000, 0.000000000000000000 ) ;
#250 = PRODUCT_DEFINITION ( 'UNKNOWN', '', #71, #15 ) ;
#251 = AXIS2_PLACEMENT_3D ( 'NONE', #269, #142, #248 ) ;
#252 = DIRECTION ( 'NONE',  ( 0.000000000000000000, 0.000000000000000000, -1.000000000000000000 ) ) ;
#253 = ORIENTED_EDGE ( 'NONE', *, *, #178, .F. ) ;
#254 = EDGE_CURVE ( 'NONE', #220, #232, #209, .T. ) ;
#255 = ORIENTED_EDGE ( 'NONE', *, *, #52, .F. ) ;
#256 = VERTEX_POINT ( 'NONE', #245 ) ;
#257 = DIRECTION ( 'NONE',  ( 0.000000000000000000, 0.000000000000000000, -1.000000000000000000 ) ) ;
#258 = ADVANCED_FACE ( 'NONE', ( #214 ), #324, .F. ) ;
#259 = ORIENTED_EDGE ( 'NONE', *, *, #102, .F. ) ;
#260 = LINE ( 'NONE', #130, #292 ) ;
#261 = ORIENTED_EDGE ( 'NONE', *, *, #171, .T. ) ;
#262 = EDGE_CURVE ( 'NONE', #225, #303, #143, .T. ) ;
#263 = PLANE ( 'NONE',  #2 ) ;
#264 = CARTESIAN_POINT ( 'NONE',  ( -29.50000000000000000, -1.000000000000000000, 0.5000000000000001110 ) ) ;
#265 = CARTESIAN_POINT ( 'NONE',  ( -29.50000000000000000, 0.8749999999999997780, 0.000000000000000000 ) ) ;
#266 = VECTOR ( 'NONE', #78, 39.37007874015748143 ) ;
#267 = UNCERTAINTY_MEASURE_WITH_UNIT (LENGTH_MEASURE( 1.000000000000000082E-05 ), #325, 'distance_accuracy_value', 'NONE');
#268 = FACE_OUTER_BOUND ( 'NONE', #195, .T. ) ;
#269 = CARTESIAN_POINT ( 'NONE',  ( 0.000000000000000000, 0.000000000000000000, 0.000000000000000000 ) ) ;
#270 = DIRECTION ( 'NONE',  ( 0.000000000000000000, -1.000000000000000000, 0.000000000000000000 ) ) ;
#271 = DIRECTION ( 'NONE',  ( 0.000000000000000000, 0.000000000000000000, 1.000000000000000000 ) ) ;
#272 = AXIS2_PLACEMENT_3D ( 'NONE', #62, #139, #240 ) ;
#273 = CARTESIAN_POINT ( 'NONE',  ( 29.50000000000000000, 0.9999999999999998890, -0.4999999999999999445 ) ) ;
#274 = EDGE_CURVE ( 'NONE', #286, #308, #144, .T. ) ;
#275 = UNCERTAINTY_MEASURE_WITH_UNIT (LENGTH_MEASURE( 1.000000000000000082E-05 ), #302, 'distance_accuracy_value', 'NONE');
#276 = AXIS2_PLACEMENT_3D ( 'NONE', #51, #54, #312 ) ;
#277 = DIRECTION ( 'NONE',  ( 1.000000000000000000, 0.000000000000000000, -0.000000000000000000 ) ) ;
#278 = VERTEX_POINT ( 'NONE', #226 ) ;
#279 = EDGE_CURVE ( 'NONE', #303, #73, #224, .T. ) ;
#280 = VECTOR ( 'NONE', #192, 39.37007874015748143 ) ;
#281 = ORIENTED_EDGE ( 'NONE', *, *, #126, .F. ) ;
#282 = DIRECTION ( 'NONE',  ( -1.000000000000000000, 0.000000000000000000, -0.000000000000000000 ) ) ;
#283 = CARTESIAN_POINT ( 'NONE',  ( 29.50000000000000000, -1.000000000000000000, 0.5000000000000001110 ) ) ;
#284 = MANIFOLD_SOLID_BREP ( 'Extrude-Thin1', #310 ) ;
#285 = CARTESIAN_POINT ( 'NONE',  ( 29.50000000000000000, 0.000000000000000000, 0.3750000000000001110 ) ) ;
#286 = VERTEX_POINT ( 'NONE', #107 ) ;
#287 = CARTESIAN_POINT ( 'NONE',  ( 29.50000000000000000, -1.000000000000000000, -0.4999999999999999445 ) ) ;
#288 = PLANE ( 'NONE',  #276 ) ;
#289 = CARTESIAN_POINT ( 'NONE',  ( 29.50000000000000000, -1.000000000000000000, 0.5000000000000001110 ) ) ;
#290 = ADVANCED_FACE ( 'NONE', ( #206 ), #332, .F. ) ;
#291 = LINE ( 'NONE', #5, #162 ) ;
#292 = VECTOR ( 'NONE', #235, 39.37007874015748143 ) ;
#293 = UNCERTAINTY_MEASURE_WITH_UNIT (LENGTH_MEASURE( 1.000000000000000082E-05 ), #55, 'distance_accuracy_value', 'NONE');
#294 = LINE ( 'NONE', #190, #233 ) ;
#295 = LINE ( 'NONE', #63, #98 ) ;
#296 = DIRECTION ( 'NONE',  ( -1.000000000000000000, -0.000000000000000000, -0.000000000000000000 ) ) ;
#297 = DIRECTION ( 'NONE',  ( -1.000000000000000000, -0.000000000000000000, -0.000000000000000000 ) ) ;
#298 = PRODUCT_DEFINITION_SHAPE ( 'NONE', 'NONE',  #250 ) ;
#299 = DIMENSIONAL_EXPONENTS ( 1.000000000000000000, 0.000000000000000000, 0.000000000000000000, 0.000000000000000000, 0.000000000000000000, 0.000000000000000000, 0.000000000000000000 ) ;
#300 = ADVANCED_FACE ( 'NONE', ( #204, #159 ), #288, .F. ) ;
#301 =( LENGTH_UNIT ( ) NAMED_UNIT ( * ) SI_UNIT ( $, .METRE. ) );
#302 =( CONVERSION_BASED_UNIT ( 'INCH', #212 ) LENGTH_UNIT ( ) NAMED_UNIT ( #218 ) );
#303 = VERTEX_POINT ( 'NONE', #46 ) ;
#304 = ADVANCED_FACE ( 'NONE', ( #25 ), #79, .F. ) ;
#305 = AXIS2_PLACEMENT_3D ( 'NONE', #210, #58, #188 ) ;
#306 = FILL_AREA_STYLE_COLOUR ( '', #87 ) ;
#307 = ORIENTED_EDGE ( 'NONE', *, *, #174, .T. ) ;
#308 = VERTEX_POINT ( 'NONE', #155 ) ;
#309 = EDGE_CURVE ( 'NONE', #278, #225, #260, .T. ) ;
#310 = CLOSED_SHELL ( 'NONE', ( #327, #300, #258, #304, #290, #237, #331, #223, #43, #110 ) ) ;
#311 = CARTESIAN_POINT ( 'NONE',  ( 29.50000000000000000, 0.000000000000000000, 0.3750000000000001110 ) ) ;
#312 = DIRECTION ( 'NONE',  ( 0.000000000000000000, 0.000000000000000000, -1.000000000000000000 ) ) ;
#313 = CARTESIAN_POINT ( 'NONE',  ( -29.50000000000000000, 0.000000000000000000, 0.3750000000000001110 ) ) ;
#314 = EDGE_CURVE ( 'NONE', #73, #232, #3, .T. ) ;
#315 = PLANE ( 'NONE',  #151 ) ;
#316 = PLANE ( 'NONE',  #323 ) ;
#317 = VERTEX_POINT ( 'NONE', #346 ) ;
#318 = VECTOR ( 'NONE', #296, 39.37007874015748143 ) ;
#319 = FACE_OUTER_BOUND ( 'NONE', #338, .T. ) ;
#320 = CARTESIAN_POINT ( 'NONE',  ( 29.50000000000000000, 0.8749999999999997780, 0.3750000000000001110 ) ) ;
#321 =( NAMED_UNIT ( * ) SI_UNIT ( $, .STERADIAN. ) SOLID_ANGLE_UNIT ( ) );
#322 = LINE ( 'NONE', #9, #41 ) ;
#323 = AXIS2_PLACEMENT_3D ( 'NONE', #182, #231, #36 ) ;
#324 = PLANE ( 'NONE',  #168 ) ;
#325 =( CONVERSION_BASED_UNIT ( 'INCH', #165 ) LENGTH_UNIT ( ) NAMED_UNIT ( #249 ) );
#326 = PLANE ( 'NONE',  #113 ) ;
#327 = ADVANCED_FACE ( 'NONE', ( #49, #31 ), #316, .T. ) ;
#328 = ORIENTED_EDGE ( 'NONE', *, *, #84, .T. ) ;
#329 = VECTOR ( 'NONE', #189, 39.37007874015748143 ) ;
#330 =( GEOMETRIC_REPRESENTATION_CONTEXT ( 3 ) GLOBAL_UNCERTAINTY_ASSIGNED_CONTEXT ( ( #275 ) ) GLOBAL_UNIT_ASSIGNED_CONTEXT ( ( #302, #219, #67 ) ) REPRESENTATION_CONTEXT ( 'NONE', 'WORKASPACE' ) );
#331 = ADVANCED_FACE ( 'NONE', ( #92 ), #117, .T. ) ;
#332 = PLANE ( 'NONE',  #172 ) ;
#333 = PRESENTATION_STYLE_ASSIGNMENT (( #123 ) ) ;
#334 = ORIENTED_EDGE ( 'NONE', *, *, #314, .F. ) ;
#335 = VECTOR ( 'NONE', #83, 39.37007874015748143 ) ;
#336 = STYLED_ITEM ( 'NONE', ( #11 ), #27 ) ;
#337 = ORIENTED_EDGE ( 'NONE', *, *, #122, .F. ) ;
#338 = EDGE_LOOP ( 'NONE', ( #152, #181, #121, #228 ) ) ;
#339 = EDGE_CURVE ( 'NONE', #70, #317, #215, .T. ) ;
#340 = CARTESIAN_POINT ( 'NONE',  ( -29.50000000000000000, 0.9999999999999998890, 0.5000000000000001110 ) ) ;
#341 = VECTOR ( 'NONE', #45, 39.37007874015748143 ) ;
#342 = ORIENTED_EDGE ( 'NONE', *, *, #118, .F. ) ;
#343 = DIRECTION ( 'NONE',  ( 0.000000000000000000, 0.000000000000000000, -1.000000000000000000 ) ) ;
#344 = EDGE_CURVE ( 'NONE', #278, #99, #295, .T. ) ;
#345 = CARTESIAN_POINT ( 'NONE',  ( -29.50000000000000000, 0.8749999999999997780, -0.3749999999999999445 ) ) ;
#346 = CARTESIAN_POINT ( 'NONE',  ( -29.50000000000000000, 0.9999999999999998890, -0.4999999999999999445 ) ) ;
#347 = ORIENTED_EDGE ( 'NONE', *, *, #23, .F. ) ;
ENDSEC;
END-ISO-10303-21;
