ISO-10303-21;
HEADER;
FILE_DESCRIPTION (( 'STEP AP214' ),
    '1' );
FILE_NAME ('WCP-0081 Rev1.STEP',
    '2021-04-27T07:36:01',
    ( '' ),
    ( '' ),
    'SwSTEP 2.0',
    'SolidWorks 2020',
    '' );
FILE_SCHEMA (( 'AUTOMOTIVE_DESIGN' ));
ENDSEC;

DATA;
#1 = LINE ( 'NONE', #118, #62 ) ;
#2 = VECTOR ( 'NONE', #99, 39.37007874015748143 ) ;
#3 = LINE ( 'NONE', #167, #94 ) ;
#4 = PRODUCT_DEFINITION_FORMATION_WITH_SPECIFIED_SOURCE ( 'ANY', '', #43, .NOT_KNOWN. ) ;
#5 = PRODUCT_DEFINITION_CONTEXT ( 'detailed design', #69, 'design' ) ;
#6 = LINE ( 'NONE', #97, #2 ) ;
#7 = ADVANCED_FACE ( 'NONE', ( #269, #188 ), #318, .T. ) ;
#8 = LINE ( 'NONE', #254, #68 ) ;
#9 = PRODUCT_CONTEXT ( 'NONE', #200, 'mechanical' ) ;
#10 = PLANE ( 'NONE',  #37 ) ;
#11 = CARTESIAN_POINT ( 'NONE',  ( 0.000000000000000000, 0.000000000000000000, 0.000000000000000000 ) ) ;
#12 = PRESENTATION_LAYER_ASSIGNMENT (  '', '', ( #221 ) ) ;
#13 = CARTESIAN_POINT ( 'NONE',  ( 29.50000000000000000, 0.9999999999999998890, 0.5000000000000001110 ) ) ;
#14 = DIRECTION ( 'NONE',  ( 0.000000000000000000, 1.000000000000000000, 0.000000000000000000 ) ) ;
#15 = CARTESIAN_POINT ( 'NONE',  ( 29.50000000000000000, -1.000000000000000000, -0.4999999999999999445 ) ) ;
#16 = APPLICATION_PROTOCOL_DEFINITION ( 'draft international standard', 'automotive_design', 1998, #200 ) ;
#17 = ORIENTED_EDGE ( 'NONE', *, *, #163, .T. ) ;
#18 = DIRECTION ( 'NONE',  ( 0.000000000000000000, -0.000000000000000000, -1.000000000000000000 ) ) ;
#19 = CLOSED_SHELL ( 'NONE', ( #7, #35, #133, #29, #60, #96, #179, #215, #55, #168 ) ) ;
#20 = EDGE_LOOP ( 'NONE', ( #25, #115, #190, #75 ) ) ;
#21 = PLANE ( 'NONE',  #232 ) ;
#22 = CARTESIAN_POINT ( 'NONE',  ( 29.50000000000000000, 0.9374999999999998890, 0.000000000000000000 ) ) ;
#23 = ORIENTED_EDGE ( 'NONE', *, *, #245, .F. ) ;
#24 = VECTOR ( 'NONE', #270, 39.37007874015748143 ) ;
#25 = ORIENTED_EDGE ( 'NONE', *, *, #242, .T. ) ;
#26 = CARTESIAN_POINT ( 'NONE',  ( 29.50000000000000000, -1.000000000000000000, -0.4999999999999999445 ) ) ;
#27 = EDGE_LOOP ( 'NONE', ( #315, #57, #265, #275 ) ) ;
#28 = LINE ( 'NONE', #145, #50 ) ;
#29 = ADVANCED_FACE ( 'NONE', ( #58 ), #267, .F. ) ;
#30 = ORIENTED_EDGE ( 'NONE', *, *, #105, .F. ) ;
#31 = DIRECTION ( 'NONE',  ( -0.000000000000000000, -1.000000000000000000, -0.000000000000000000 ) ) ;
#32 = VERTEX_POINT ( 'NONE', #212 ) ;
#33 = CARTESIAN_POINT ( 'NONE',  ( -29.50000000000000000, -1.000000000000000000, 0.5000000000000001110 ) ) ;
#34 = DIRECTION ( 'NONE',  ( -1.000000000000000000, -0.000000000000000000, -0.000000000000000000 ) ) ;
#35 = ADVANCED_FACE ( 'NONE', ( #216, #239 ), #84, .F. ) ;
#36 = DIRECTION ( 'NONE',  ( 0.000000000000000000, 0.000000000000000000, 1.000000000000000000 ) ) ;
#37 = AXIS2_PLACEMENT_3D ( 'NONE', #297, #227, #172 ) ;
#38 = SURFACE_STYLE_FILL_AREA ( #322 ) ;
#39 = FACE_OUTER_BOUND ( 'NONE', #230, .T. ) ;
#40 = CARTESIAN_POINT ( 'NONE',  ( 29.50000000000000000, -0.9375000000000000000, -0.4374999999999998890 ) ) ;
#41 = DIRECTION ( 'NONE',  ( 0.000000000000000000, 0.000000000000000000, -1.000000000000000000 ) ) ;
#42 = FACE_OUTER_BOUND ( 'NONE', #291, .T. ) ;
#43 = PRODUCT ( 'WCP-0081 Rev1', 'WCP-0081 Rev1', '', ( #9 ) ) ;
#44 = DIRECTION ( 'NONE',  ( 0.000000000000000000, -1.000000000000000000, 0.000000000000000000 ) ) ;
#45 = ORIENTED_EDGE ( 'NONE', *, *, #114, .F. ) ;
#46 = VECTOR ( 'NONE', #31, 39.37007874015748143 ) ;
#47 = VERTEX_POINT ( 'NONE', #289 ) ;
#48 = EDGE_CURVE ( 'NONE', #261, #314, #268, .T. ) ;
#49 = ORIENTED_EDGE ( 'NONE', *, *, #93, .F. ) ;
#50 = VECTOR ( 'NONE', #274, 39.37007874015748143 ) ;
#51 =( GEOMETRIC_REPRESENTATION_CONTEXT ( 3 ) GLOBAL_UNCERTAINTY_ASSIGNED_CONTEXT ( ( #173 ) ) GLOBAL_UNIT_ASSIGNED_CONTEXT ( ( #197, #226, #66 ) ) REPRESENTATION_CONTEXT ( 'NONE', 'WORKASPACE' ) );
#52 = ORIENTED_EDGE ( 'NONE', *, *, #242, .F. ) ;
#53 = EDGE_LOOP ( 'NONE', ( #316, #191, #161, #144 ) ) ;
#54 = CARTESIAN_POINT ( 'NONE',  ( -29.50000000000000000, 0.000000000000000000, 0.000000000000000000 ) ) ;
#55 = ADVANCED_FACE ( 'NONE', ( #327 ), #250, .T. ) ;
#56 = VECTOR ( 'NONE', #123, 39.37007874015748143 ) ;
#57 = ORIENTED_EDGE ( 'NONE', *, *, #298, .F. ) ;
#58 = FACE_OUTER_BOUND ( 'NONE', #164, .T. ) ;
#59 = LINE ( 'NONE', #112, #46 ) ;
#60 = ADVANCED_FACE ( 'NONE', ( #146 ), #151, .F. ) ;
#61 = CARTESIAN_POINT ( 'NONE',  ( 29.50000000000000000, 0.9999999999999998890, -0.4999999999999999445 ) ) ;
#62 = VECTOR ( 'NONE', #155, 39.37007874015748143 ) ;
#63 = CARTESIAN_POINT ( 'NONE',  ( 29.50000000000000000, 0.9374999999999998890, -0.4374999999999998890 ) ) ;
#64 = SURFACE_STYLE_FILL_AREA ( #332 ) ;
#65 = LINE ( 'NONE', #222, #56 ) ;
#66 =( NAMED_UNIT ( * ) SI_UNIT ( $, .STERADIAN. ) SOLID_ANGLE_UNIT ( ) );
#67 = CARTESIAN_POINT ( 'NONE',  ( 29.50000000000000000, -0.9375000000000000000, 0.4375000000000000555 ) ) ;
#68 = VECTOR ( 'NONE', #280, 39.37007874015748143 ) ;
#69 = APPLICATION_CONTEXT ( 'automotive_design' ) ;
#70 = CARTESIAN_POINT ( 'NONE',  ( 29.50000000000000000, 0.000000000000000000, -0.4374999999999998890 ) ) ;
#71 = VERTEX_POINT ( 'NONE', #61 ) ;
#72 = EDGE_CURVE ( 'NONE', #244, #262, #196, .T. ) ;
#73 = ORIENTED_EDGE ( 'NONE', *, *, #295, .T. ) ;
#74 = PLANE ( 'NONE',  #107 ) ;
#75 = ORIENTED_EDGE ( 'NONE', *, *, #105, .T. ) ;
#76 = VECTOR ( 'NONE', #41, 39.37007874015748143 ) ;
#77 = CARTESIAN_POINT ( 'NONE',  ( 29.50000000000000000, -1.000000000000000000, 0.5000000000000001110 ) ) ;
#78 = EDGE_CURVE ( 'NONE', #338, #32, #6, .T. ) ;
#79 = ORIENTED_EDGE ( 'NONE', *, *, #263, .F. ) ;
#80 = ORIENTED_EDGE ( 'NONE', *, *, #295, .F. ) ;
#81 = VECTOR ( 'NONE', #135, 39.37007874015748143 ) ;
#82 = VERTEX_POINT ( 'NONE', #174 ) ;
#83 = DIRECTION ( 'NONE',  ( 0.000000000000000000, -1.000000000000000000, 0.000000000000000000 ) ) ;
#84 = PLANE ( 'NONE',  #334 ) ;
#85 = ORIENTED_EDGE ( 'NONE', *, *, #78, .F. ) ;
#86 = SURFACE_SIDE_STYLE ('',( #38 ) ) ;
#87 = DIRECTION ( 'NONE',  ( 1.000000000000000000, 0.000000000000000000, 0.000000000000000000 ) ) ;
#88 = CARTESIAN_POINT ( 'NONE',  ( 29.50000000000000000, -0.9375000000000000000, 0.000000000000000000 ) ) ;
#89 = PLANE ( 'NONE',  #253 ) ;
#90 = SURFACE_STYLE_USAGE ( .BOTH. , #86 ) ;
#91 = EDGE_CURVE ( 'NONE', #47, #82, #225, .T. ) ;
#92 = CARTESIAN_POINT ( 'NONE',  ( 29.50000000000000000, -1.000000000000000000, -0.4999999999999999445 ) ) ;
#93 = EDGE_CURVE ( 'NONE', #343, #113, #303, .T. ) ;
#94 = VECTOR ( 'NONE', #143, 39.37007874015748143 ) ;
#95 = DIRECTION ( 'NONE',  ( -1.000000000000000000, 0.000000000000000000, -0.000000000000000000 ) ) ;
#96 = ADVANCED_FACE ( 'NONE', ( #246 ), #10, .F. ) ;
#97 = CARTESIAN_POINT ( 'NONE',  ( 29.50000000000000000, -1.000000000000000000, 0.5000000000000001110 ) ) ;
#98 = APPLICATION_PROTOCOL_DEFINITION ( 'draft international standard', 'automotive_design', 1998, #69 ) ;
#99 = DIRECTION ( 'NONE',  ( -0.000000000000000000, -1.000000000000000000, -0.000000000000000000 ) ) ;
#100 =( NAMED_UNIT ( * ) PLANE_ANGLE_UNIT ( ) SI_UNIT ( $, .RADIAN. ) );
#101 = ORIENTED_EDGE ( 'NONE', *, *, #102, .F. ) ;
#102 = EDGE_CURVE ( 'NONE', #71, #338, #324, .T. ) ;
#103 = LINE ( 'NONE', #77, #81 ) ;
#104 = FACE_OUTER_BOUND ( 'NONE', #213, .T. ) ;
#105 = EDGE_CURVE ( 'NONE', #113, #82, #299, .T. ) ;
#106 = ORIENTED_EDGE ( 'NONE', *, *, #192, .F. ) ;
#107 = AXIS2_PLACEMENT_3D ( 'NONE', #22, #44, #18 ) ;
#108 = ORIENTED_EDGE ( 'NONE', *, *, #91, .T. ) ;
#109 = CARTESIAN_POINT ( 'NONE',  ( 29.50000000000000000, 0.9999999999999998890, 0.5000000000000001110 ) ) ;
#110 =( GEOMETRIC_REPRESENTATION_CONTEXT ( 3 ) GLOBAL_UNCERTAINTY_ASSIGNED_CONTEXT ( ( #236 ) ) GLOBAL_UNIT_ASSIGNED_CONTEXT ( ( #300, #325, #330 ) ) REPRESENTATION_CONTEXT ( 'NONE', 'WORKASPACE' ) );
#111 = EDGE_LOOP ( 'NONE', ( #166, #333, #80, #206 ) ) ;
#112 = CARTESIAN_POINT ( 'NONE',  ( -29.50000000000000000, -1.000000000000000000, 0.5000000000000001110 ) ) ;
#113 = VERTEX_POINT ( 'NONE', #150 ) ;
#114 = EDGE_CURVE ( 'NONE', #71, #210, #1, .T. ) ;
#115 = ORIENTED_EDGE ( 'NONE', *, *, #72, .T. ) ;
#116 = DIRECTION ( 'NONE',  ( 0.000000000000000000, 0.000000000000000000, -1.000000000000000000 ) ) ;
#117 = CARTESIAN_POINT ( 'NONE',  ( -29.50000000000000000, -1.000000000000000000, -0.4999999999999999445 ) ) ;
#118 = CARTESIAN_POINT ( 'NONE',  ( 29.50000000000000000, 0.9999999999999998890, -0.4999999999999999445 ) ) ;
#119 = LENGTH_MEASURE_WITH_UNIT ( LENGTH_MEASURE( 0.02539999999999999897 ), #308 );
#120 = EDGE_CURVE ( 'NONE', #314, #210, #65, .T. ) ;
#121 = PLANE ( 'NONE',  #158 ) ;
#122 = PRESENTATION_STYLE_ASSIGNMENT (( #175 ) ) ;
#123 = DIRECTION ( 'NONE',  ( 0.000000000000000000, 1.000000000000000000, 0.000000000000000000 ) ) ;
#124 = DIRECTION ( 'NONE',  ( 1.000000000000000000, 0.000000000000000000, 0.000000000000000000 ) ) ;
#125 = DIRECTION ( 'NONE',  ( 1.000000000000000000, 0.000000000000000000, -0.000000000000000000 ) ) ;
#126 = DIRECTION ( 'NONE',  ( 0.000000000000000000, 0.000000000000000000, -1.000000000000000000 ) ) ;
#127 = EDGE_CURVE ( 'NONE', #262, #113, #8, .T. ) ;
#128 = DIMENSIONAL_EXPONENTS ( 1.000000000000000000, 0.000000000000000000, 0.000000000000000000, 0.000000000000000000, 0.000000000000000000, 0.000000000000000000, 0.000000000000000000 ) ;
#129 = CARTESIAN_POINT ( 'NONE',  ( 29.50000000000000000, -1.000000000000000000, 0.5000000000000001110 ) ) ;
#130 = CARTESIAN_POINT ( 'NONE',  ( -29.50000000000000000, 0.000000000000000000, -0.4374999999999998890 ) ) ;
#131 = VECTOR ( 'NONE', #235, 39.37007874015748143 ) ;
#132 = ORIENTED_EDGE ( 'NONE', *, *, #120, .F. ) ;
#133 = ADVANCED_FACE ( 'NONE', ( #224 ), #89, .F. ) ;
#134 = DIRECTION ( 'NONE',  ( 0.000000000000000000, 0.000000000000000000, 1.000000000000000000 ) ) ;
#135 = DIRECTION ( 'NONE',  ( -1.000000000000000000, -0.000000000000000000, -0.000000000000000000 ) ) ;
#136 = VECTOR ( 'NONE', #36, 39.37007874015748143 ) ;
#137 = VERTEX_POINT ( 'NONE', #323 ) ;
#138 = ORIENTED_EDGE ( 'NONE', *, *, #240, .F. ) ;
#139 = EDGE_CURVE ( 'NONE', #210, #182, #329, .T. ) ;
#140 = VERTEX_POINT ( 'NONE', #203 ) ;
#141 = STYLED_ITEM ( 'NONE', ( #294 ), #345 ) ;
#142 = ORIENTED_EDGE ( 'NONE', *, *, #91, .F. ) ;
#143 = DIRECTION ( 'NONE',  ( -1.000000000000000000, -0.000000000000000000, -0.000000000000000000 ) ) ;
#144 = ORIENTED_EDGE ( 'NONE', *, *, #263, .T. ) ;
#145 = CARTESIAN_POINT ( 'NONE',  ( 29.50000000000000000, 0.000000000000000000, -0.4374999999999998890 ) ) ;
#146 = FACE_OUTER_BOUND ( 'NONE', #237, .T. ) ;
#147 = LINE ( 'NONE', #88, #24 ) ;
#148 = AXIS2_PLACEMENT_3D ( 'NONE', #109, #217, #241 ) ;
#149 =( GEOMETRIC_REPRESENTATION_CONTEXT ( 3 ) GLOBAL_UNCERTAINTY_ASSIGNED_CONTEXT ( ( #264 ) ) GLOBAL_UNIT_ASSIGNED_CONTEXT ( ( #156, #100, #305 ) ) REPRESENTATION_CONTEXT ( 'NONE', 'WORKASPACE' ) );
#150 = CARTESIAN_POINT ( 'NONE',  ( -29.50000000000000000, -0.9375000000000000000, 0.4375000000000000555 ) ) ;
#151 = PLANE ( 'NONE',  #214 ) ;
#152 = SURFACE_SIDE_STYLE ('',( #64 ) ) ;
#153 = PRODUCT_RELATED_PRODUCT_CATEGORY ( 'part', '', ( #43 ) ) ;
#154 = DIRECTION ( 'NONE',  ( 0.000000000000000000, -0.000000000000000000, 1.000000000000000000 ) ) ;
#155 = DIRECTION ( 'NONE',  ( -1.000000000000000000, -0.000000000000000000, -0.000000000000000000 ) ) ;
#156 =( CONVERSION_BASED_UNIT ( 'INCH', #249 ) LENGTH_UNIT ( ) NAMED_UNIT ( #185 ) );
#157 = CARTESIAN_POINT ( 'NONE',  ( -29.50000000000000000, -1.000000000000000000, 0.5000000000000001110 ) ) ;
#158 = AXIS2_PLACEMENT_3D ( 'NONE', #302, #176, #154 ) ;
#159 = ORIENTED_EDGE ( 'NONE', *, *, #114, .T. ) ;
#160 = ORIENTED_EDGE ( 'NONE', *, *, #258, .F. ) ;
#161 = ORIENTED_EDGE ( 'NONE', *, *, #78, .T. ) ;
#162 = PRESENTATION_LAYER_ASSIGNMENT (  '', '', ( #141 ) ) ;
#163 = EDGE_CURVE ( 'NONE', #140, #244, #170, .T. ) ;
#164 = EDGE_LOOP ( 'NONE', ( #183, #160, #101, #159 ) ) ;
#165 = DIRECTION ( 'NONE',  ( 0.000000000000000000, 0.000000000000000000, -1.000000000000000000 ) ) ;
#166 = ORIENTED_EDGE ( 'NONE', *, *, #342, .F. ) ;
#167 = CARTESIAN_POINT ( 'NONE',  ( 29.50000000000000000, 0.9374999999999998890, 0.4375000000000000555 ) ) ;
#168 = ADVANCED_FACE ( 'NONE', ( #39 ), #121, .T. ) ;
#169 = ORIENTED_EDGE ( 'NONE', *, *, #139, .F. ) ;
#170 = LINE ( 'NONE', #63, #273 ) ;
#171 = LINE ( 'NONE', #320, #180 ) ;
#172 = DIRECTION ( 'NONE',  ( 0.000000000000000000, -0.000000000000000000, 1.000000000000000000 ) ) ;
#173 = UNCERTAINTY_MEASURE_WITH_UNIT (LENGTH_MEASURE( 1.000000000000000082E-05 ), #197, 'distance_accuracy_value', 'NONE');
#174 = CARTESIAN_POINT ( 'NONE',  ( -29.50000000000000000, -0.9375000000000000000, -0.4374999999999998890 ) ) ;
#175 = SURFACE_STYLE_USAGE ( .BOTH. , #152 ) ;
#176 = DIRECTION ( 'NONE',  ( -0.000000000000000000, 1.000000000000000000, 0.000000000000000000 ) ) ;
#177 = FILL_AREA_STYLE_COLOUR ( '', #187 ) ;
#178 = CARTESIAN_POINT ( 'NONE',  ( 29.50000000000000000, -1.000000000000000000, 0.5000000000000001110 ) ) ;
#179 = ADVANCED_FACE ( 'NONE', ( #42 ), #21, .T. ) ;
#180 = VECTOR ( 'NONE', #83, 39.37007874015748143 ) ;
#181 = DIRECTION ( 'NONE',  ( 1.000000000000000000, 0.000000000000000000, -0.000000000000000000 ) ) ;
#182 = VERTEX_POINT ( 'NONE', #331 ) ;
#183 = ORIENTED_EDGE ( 'NONE', *, *, #139, .T. ) ;
#184 = ORIENTED_EDGE ( 'NONE', *, *, #48, .T. ) ;
#185 = DIMENSIONAL_EXPONENTS ( 1.000000000000000000, 0.000000000000000000, 0.000000000000000000, 0.000000000000000000, 0.000000000000000000, 0.000000000000000000, 0.000000000000000000 ) ;
#186 = DIRECTION ( 'NONE',  ( 0.000000000000000000, 0.000000000000000000, -1.000000000000000000 ) ) ;
#187 = COLOUR_RGB ( '',0.8666666666666666963, 0.9098039215686274384, 1.000000000000000000 ) ;
#188 = FACE_BOUND ( 'NONE', #111, .T. ) ;
#189 = CARTESIAN_POINT ( 'NONE',  ( 29.50000000000000000, 0.9999999999999998890, 0.5000000000000001110 ) ) ;
#190 = ORIENTED_EDGE ( 'NONE', *, *, #127, .T. ) ;
#191 = ORIENTED_EDGE ( 'NONE', *, *, #102, .T. ) ;
#192 = EDGE_CURVE ( 'NONE', #261, #71, #286, .T. ) ;
#193 = VECTOR ( 'NONE', #14, 39.37007874015748143 ) ;
#194 = EDGE_LOOP ( 'NONE', ( #341, #287, #79, #346 ) ) ;
#195 = DIRECTION ( 'NONE',  ( 0.000000000000000000, 0.000000000000000000, 1.000000000000000000 ) ) ;
#196 = LINE ( 'NONE', #281, #336 ) ;
#197 =( CONVERSION_BASED_UNIT ( 'INCH', #119 ) LENGTH_UNIT ( ) NAMED_UNIT ( #128 ) );
#198 = VECTOR ( 'NONE', #271, 39.37007874015748143 ) ;
#199 = DIRECTION ( 'NONE',  ( -1.000000000000000000, -0.000000000000000000, -0.000000000000000000 ) ) ;
#200 = APPLICATION_CONTEXT ( 'automotive_design' ) ;
#201 = DIRECTION ( 'NONE',  ( 0.000000000000000000, 0.000000000000000000, -1.000000000000000000 ) ) ;
#202 = SHAPE_DEFINITION_REPRESENTATION ( #204, #234 ) ;
#203 = CARTESIAN_POINT ( 'NONE',  ( 29.50000000000000000, 0.9374999999999998890, -0.4374999999999998890 ) ) ;
#204 = PRODUCT_DEFINITION_SHAPE ( 'NONE', 'NONE',  #207 ) ;
#205 =( LENGTH_UNIT ( ) NAMED_UNIT ( * ) SI_UNIT ( $, .METRE. ) );
#206 = ORIENTED_EDGE ( 'NONE', *, *, #288, .F. ) ;
#207 = PRODUCT_DEFINITION ( 'UNKNOWN', '', #4, #5 ) ;
#208 = LINE ( 'NONE', #157, #282 ) ;
#209 = AXIS2_PLACEMENT_3D ( 'NONE', #252, #116, #95 ) ;
#210 = VERTEX_POINT ( 'NONE', #284 ) ;
#211 = ORIENTED_EDGE ( 'NONE', *, *, #290, .F. ) ;
#212 = CARTESIAN_POINT ( 'NONE',  ( 29.50000000000000000, -1.000000000000000000, 0.5000000000000001110 ) ) ;
#213 = EDGE_LOOP ( 'NONE', ( #219, #339, #272, #259 ) ) ;
#214 = AXIS2_PLACEMENT_3D ( 'NONE', #178, #201, #277 ) ;
#215 = ADVANCED_FACE ( 'NONE', ( #104 ), #74, .T. ) ;
#216 = FACE_OUTER_BOUND ( 'NONE', #312, .T. ) ;
#217 = DIRECTION ( 'NONE',  ( 0.000000000000000000, -1.000000000000000000, 0.000000000000000000 ) ) ;
#218 = CARTESIAN_POINT ( 'NONE',  ( 29.50000000000000000, 0.9999999999999998890, 0.5000000000000001110 ) ) ;
#219 = ORIENTED_EDGE ( 'NONE', *, *, #72, .F. ) ;
#220 = COLOUR_RGB ( '',0.8666666666666666963, 0.9098039215686274384, 1.000000000000000000 ) ;
#221 = STYLED_ITEM ( 'NONE', ( #122 ), #234 ) ;
#222 = CARTESIAN_POINT ( 'NONE',  ( -29.50000000000000000, -1.000000000000000000, -0.4999999999999999445 ) ) ;
#223 = FILL_AREA_STYLE_COLOUR ( '', #220 ) ;
#224 = FACE_OUTER_BOUND ( 'NONE', #309, .T. ) ;
#225 = LINE ( 'NONE', #40, #231 ) ;
#226 =( NAMED_UNIT ( * ) PLANE_ANGLE_UNIT ( ) SI_UNIT ( $, .RADIAN. ) );
#227 = DIRECTION ( 'NONE',  ( -0.000000000000000000, 1.000000000000000000, 0.000000000000000000 ) ) ;
#228 = DIRECTION ( 'NONE',  ( 0.000000000000000000, 0.000000000000000000, 1.000000000000000000 ) ) ;
#229 = LENGTH_MEASURE_WITH_UNIT ( LENGTH_MEASURE( 0.02539999999999999897 ), #205 );
#230 = EDGE_LOOP ( 'NONE', ( #30, #49, #73, #108 ) ) ;
#231 = VECTOR ( 'NONE', #276, 39.37007874015748143 ) ;
#232 = AXIS2_PLACEMENT_3D ( 'NONE', #70, #134, #181 ) ;
#233 = CARTESIAN_POINT ( 'NONE',  ( 29.50000000000000000, -1.000000000000000000, -0.4999999999999999445 ) ) ;
#234 = ADVANCED_BREP_SHAPE_REPRESENTATION ( 'WCP-0081 Rev1', ( #345, #247 ), #110 ) ;
#235 = DIRECTION ( 'NONE',  ( 0.000000000000000000, 1.000000000000000000, 0.000000000000000000 ) ) ;
#236 = UNCERTAINTY_MEASURE_WITH_UNIT (LENGTH_MEASURE( 1.000000000000000082E-05 ), #300, 'distance_accuracy_value', 'NONE');
#237 = EDGE_LOOP ( 'NONE', ( #238, #23, #85, #293 ) ) ;
#238 = ORIENTED_EDGE ( 'NONE', *, *, #290, .T. ) ;
#239 = FACE_BOUND ( 'NONE', #20, .T. ) ;
#240 = EDGE_CURVE ( 'NONE', #310, #314, #208, .T. ) ;
#241 = DIRECTION ( 'NONE',  ( 0.000000000000000000, -0.000000000000000000, -1.000000000000000000 ) ) ;
#242 = EDGE_CURVE ( 'NONE', #82, #244, #257, .T. ) ;
#243 = ORIENTED_EDGE ( 'NONE', *, *, #120, .T. ) ;
#244 = VERTEX_POINT ( 'NONE', #335 ) ;
#245 = EDGE_CURVE ( 'NONE', #32, #310, #103, .T. ) ;
#246 = FACE_OUTER_BOUND ( 'NONE', #194, .T. ) ;
#247 = AXIS2_PLACEMENT_3D ( 'NONE', #11, #256, #124 ) ;
#248 = DIRECTION ( 'NONE',  ( 0.000000000000000000, 0.000000000000000000, 1.000000000000000000 ) ) ;
#249 = LENGTH_MEASURE_WITH_UNIT ( LENGTH_MEASURE( 0.02539999999999999897 ), #283 );
#250 = PLANE ( 'NONE',  #209 ) ;
#251 = CARTESIAN_POINT ( 'NONE',  ( -29.50000000000000000, 0.9374999999999998890, 0.4375000000000000555 ) ) ;
#252 = CARTESIAN_POINT ( 'NONE',  ( 29.50000000000000000, 0.000000000000000000, 0.4375000000000000555 ) ) ;
#253 = AXIS2_PLACEMENT_3D ( 'NONE', #92, #195, #125 ) ;
#254 = CARTESIAN_POINT ( 'NONE',  ( -29.50000000000000000, 0.000000000000000000, 0.4375000000000000555 ) ) ;
#255 = LINE ( 'NONE', #129, #319 ) ;
#256 = DIRECTION ( 'NONE',  ( 0.000000000000000000, 0.000000000000000000, 1.000000000000000000 ) ) ;
#257 = LINE ( 'NONE', #130, #131 ) ;
#258 = EDGE_CURVE ( 'NONE', #338, #182, #337, .T. ) ;
#259 = ORIENTED_EDGE ( 'NONE', *, *, #298, .T. ) ;
#260 = VECTOR ( 'NONE', #228, 39.37007874015748143 ) ;
#261 = VERTEX_POINT ( 'NONE', #15 ) ;
#262 = VERTEX_POINT ( 'NONE', #251 ) ;
#263 = EDGE_CURVE ( 'NONE', #32, #261, #255, .T. ) ;
#264 = UNCERTAINTY_MEASURE_WITH_UNIT (LENGTH_MEASURE( 1.000000000000000082E-05 ), #156, 'distance_accuracy_value', 'NONE');
#265 = ORIENTED_EDGE ( 'NONE', *, *, #288, .T. ) ;
#266 = MECHANICAL_DESIGN_GEOMETRIC_PRESENTATION_REPRESENTATION (  '', ( #141 ), #149 ) ;
#267 = PLANE ( 'NONE',  #148 ) ;
#268 = LINE ( 'NONE', #26, #326 ) ;
#269 = FACE_OUTER_BOUND ( 'NONE', #53, .T. ) ;
#270 = DIRECTION ( 'NONE',  ( 0.000000000000000000, 0.000000000000000000, -1.000000000000000000 ) ) ;
#271 = DIRECTION ( 'NONE',  ( -1.000000000000000000, -0.000000000000000000, -0.000000000000000000 ) ) ;
#272 = ORIENTED_EDGE ( 'NONE', *, *, #342, .T. ) ;
#273 = VECTOR ( 'NONE', #279, 39.37007874015748143 ) ;
#274 = DIRECTION ( 'NONE',  ( 0.000000000000000000, 1.000000000000000000, 0.000000000000000000 ) ) ;
#275 = ORIENTED_EDGE ( 'NONE', *, *, #93, .T. ) ;
#276 = DIRECTION ( 'NONE',  ( -1.000000000000000000, -0.000000000000000000, -0.000000000000000000 ) ) ;
#277 = DIRECTION ( 'NONE',  ( -1.000000000000000000, 0.000000000000000000, -0.000000000000000000 ) ) ;
#278 = CARTESIAN_POINT ( 'NONE',  ( 29.50000000000000000, -0.9375000000000000000, 0.4375000000000000555 ) ) ;
#279 = DIRECTION ( 'NONE',  ( -1.000000000000000000, -0.000000000000000000, -0.000000000000000000 ) ) ;
#280 = DIRECTION ( 'NONE',  ( 0.000000000000000000, -1.000000000000000000, 0.000000000000000000 ) ) ;
#281 = CARTESIAN_POINT ( 'NONE',  ( -29.50000000000000000, 0.9374999999999998890, 0.000000000000000000 ) ) ;
#282 = VECTOR ( 'NONE', #126, 39.37007874015748143 ) ;
#283 =( LENGTH_UNIT ( ) NAMED_UNIT ( * ) SI_UNIT ( $, .METRE. ) );
#284 = CARTESIAN_POINT ( 'NONE',  ( -29.50000000000000000, 0.9999999999999998890, -0.4999999999999999445 ) ) ;
#285 = VECTOR ( 'NONE', #317, 39.37007874015748143 ) ;
#286 = LINE ( 'NONE', #233, #193 ) ;
#287 = ORIENTED_EDGE ( 'NONE', *, *, #48, .F. ) ;
#288 = EDGE_CURVE ( 'NONE', #137, #343, #171, .T. ) ;
#289 = CARTESIAN_POINT ( 'NONE',  ( 29.50000000000000000, -0.9375000000000000000, -0.4374999999999998890 ) ) ;
#290 = EDGE_CURVE ( 'NONE', #182, #310, #59, .T. ) ;
#291 = EDGE_LOOP ( 'NONE', ( #52, #142, #292, #17 ) ) ;
#292 = ORIENTED_EDGE ( 'NONE', *, *, #311, .T. ) ;
#293 = ORIENTED_EDGE ( 'NONE', *, *, #258, .T. ) ;
#294 = PRESENTATION_STYLE_ASSIGNMENT (( #90 ) ) ;
#295 = EDGE_CURVE ( 'NONE', #343, #47, #147, .T. ) ;
#296 = CARTESIAN_POINT ( 'NONE',  ( 29.50000000000000000, 0.000000000000000000, 0.000000000000000000 ) ) ;
#297 = CARTESIAN_POINT ( 'NONE',  ( 29.50000000000000000, -1.000000000000000000, 0.5000000000000001110 ) ) ;
#298 = EDGE_CURVE ( 'NONE', #137, #262, #3, .T. ) ;
#299 = LINE ( 'NONE', #321, #76 ) ;
#300 =( CONVERSION_BASED_UNIT ( 'INCH', #229 ) LENGTH_UNIT ( ) NAMED_UNIT ( #328 ) );
#301 = AXIS2_PLACEMENT_3D ( 'NONE', #296, #87, #165 ) ;
#302 = CARTESIAN_POINT ( 'NONE',  ( 29.50000000000000000, -0.9375000000000000000, 0.000000000000000000 ) ) ;
#303 = LINE ( 'NONE', #67, #306 ) ;
#304 = CARTESIAN_POINT ( 'NONE',  ( -29.50000000000000000, 0.9999999999999998890, 0.5000000000000001110 ) ) ;
#305 =( NAMED_UNIT ( * ) SI_UNIT ( $, .STERADIAN. ) SOLID_ANGLE_UNIT ( ) );
#306 = VECTOR ( 'NONE', #34, 39.37007874015748143 ) ;
#307 = MECHANICAL_DESIGN_GEOMETRIC_PRESENTATION_REPRESENTATION (  '', ( #221 ), #51 ) ;
#308 =( LENGTH_UNIT ( ) NAMED_UNIT ( * ) SI_UNIT ( $, .METRE. ) );
#309 = EDGE_LOOP ( 'NONE', ( #243, #45, #106, #184 ) ) ;
#310 = VERTEX_POINT ( 'NONE', #33 ) ;
#311 = EDGE_CURVE ( 'NONE', #47, #140, #28, .T. ) ;
#312 = EDGE_LOOP ( 'NONE', ( #132, #138, #211, #169 ) ) ;
#313 = DIRECTION ( 'NONE',  ( 1.000000000000000000, 0.000000000000000000, 0.000000000000000000 ) ) ;
#314 = VERTEX_POINT ( 'NONE', #117 ) ;
#315 = ORIENTED_EDGE ( 'NONE', *, *, #127, .F. ) ;
#316 = ORIENTED_EDGE ( 'NONE', *, *, #192, .T. ) ;
#317 = DIRECTION ( 'NONE',  ( 0.000000000000000000, 0.000000000000000000, 1.000000000000000000 ) ) ;
#318 = PLANE ( 'NONE',  #301 ) ;
#319 = VECTOR ( 'NONE', #340, 39.37007874015748143 ) ;
#320 = CARTESIAN_POINT ( 'NONE',  ( 29.50000000000000000, 0.000000000000000000, 0.4375000000000000555 ) ) ;
#321 = CARTESIAN_POINT ( 'NONE',  ( -29.50000000000000000, -0.9375000000000000000, 0.000000000000000000 ) ) ;
#322 = FILL_AREA_STYLE ('',( #223 ) ) ;
#323 = CARTESIAN_POINT ( 'NONE',  ( 29.50000000000000000, 0.9374999999999998890, 0.4375000000000000555 ) ) ;
#324 = LINE ( 'NONE', #13, #136 ) ;
#325 =( NAMED_UNIT ( * ) PLANE_ANGLE_UNIT ( ) SI_UNIT ( $, .RADIAN. ) );
#326 = VECTOR ( 'NONE', #199, 39.37007874015748143 ) ;
#327 = FACE_OUTER_BOUND ( 'NONE', #27, .T. ) ;
#328 = DIMENSIONAL_EXPONENTS ( 1.000000000000000000, 0.000000000000000000, 0.000000000000000000, 0.000000000000000000, 0.000000000000000000, 0.000000000000000000, 0.000000000000000000 ) ;
#329 = LINE ( 'NONE', #304, #260 ) ;
#330 =( NAMED_UNIT ( * ) SI_UNIT ( $, .STERADIAN. ) SOLID_ANGLE_UNIT ( ) );
#331 = CARTESIAN_POINT ( 'NONE',  ( -29.50000000000000000, 0.9999999999999998890, 0.5000000000000001110 ) ) ;
#332 = FILL_AREA_STYLE ('',( #177 ) ) ;
#333 = ORIENTED_EDGE ( 'NONE', *, *, #311, .F. ) ;
#334 = AXIS2_PLACEMENT_3D ( 'NONE', #54, #313, #186 ) ;
#335 = CARTESIAN_POINT ( 'NONE',  ( -29.50000000000000000, 0.9374999999999998890, -0.4374999999999998890 ) ) ;
#336 = VECTOR ( 'NONE', #248, 39.37007874015748143 ) ;
#337 = LINE ( 'NONE', #189, #198 ) ;
#338 = VERTEX_POINT ( 'NONE', #218 ) ;
#339 = ORIENTED_EDGE ( 'NONE', *, *, #163, .F. ) ;
#340 = DIRECTION ( 'NONE',  ( 0.000000000000000000, 0.000000000000000000, -1.000000000000000000 ) ) ;
#341 = ORIENTED_EDGE ( 'NONE', *, *, #240, .T. ) ;
#342 = EDGE_CURVE ( 'NONE', #140, #137, #344, .T. ) ;
#343 = VERTEX_POINT ( 'NONE', #278 ) ;
#344 = LINE ( 'NONE', #347, #285 ) ;
#345 = MANIFOLD_SOLID_BREP ( 'Extrude-Thin1', #19 ) ;
#346 = ORIENTED_EDGE ( 'NONE', *, *, #245, .T. ) ;
#347 = CARTESIAN_POINT ( 'NONE',  ( 29.50000000000000000, 0.9374999999999998890, 0.000000000000000000 ) ) ;
ENDSEC;
END-ISO-10303-21;
