ISO-10303-21;
HEADER;
FILE_DESCRIPTION (( 'STEP AP214' ),
    '1' );
FILE_NAME ('WCP-0079 Rev1.STEP',
    '2021-04-27T07:36:16',
    ( '' ),
    ( '' ),
    'SwSTEP 2.0',
    'SolidWorks 2020',
    '' );
FILE_SCHEMA (( 'AUTOMOTIVE_DESIGN' ));
ENDSEC;

DATA;
#1 = CARTESIAN_POINT ( 'NONE',  ( 0.000000000000000000, 0.000000000000000000, 0.000000000000000000 ) ) ;
#2 = SURFACE_SIDE_STYLE ('',( #292 ) ) ;
#3 = EDGE_CURVE ( 'NONE', #309, #333, #344, .T. ) ;
#4 = LINE ( 'NONE', #162, #251 ) ;
#5 = CARTESIAN_POINT ( 'NONE',  ( 29.50000000000000000, -0.4375000000000000000, 0.4375000000000000000 ) ) ;
#6 = MECHANICAL_DESIGN_GEOMETRIC_PRESENTATION_REPRESENTATION (  '', ( #163 ), #18 ) ;
#7 = CARTESIAN_POINT ( 'NONE',  ( -29.50000000000000000, 0.000000000000000000, 0.4375000000000000000 ) ) ;
#8 = DIRECTION ( 'NONE',  ( 0.000000000000000000, 0.000000000000000000, 1.000000000000000000 ) ) ;
#9 = CARTESIAN_POINT ( 'NONE',  ( -29.50000000000000000, -0.4375000000000000000, 0.4375000000000000000 ) ) ;
#10 = MANIFOLD_SOLID_BREP ( 'Extrude-Thin1', #299 ) ;
#11 = ORIENTED_EDGE ( 'NONE', *, *, #88, .F. ) ;
#12 = CARTESIAN_POINT ( 'NONE',  ( 29.50000000000000000, 0.4375000000000000000, -0.4375000000000000000 ) ) ;
#13 = ORIENTED_EDGE ( 'NONE', *, *, #239, .F. ) ;
#14 = DIRECTION ( 'NONE',  ( 0.000000000000000000, 0.000000000000000000, -1.000000000000000000 ) ) ;
#15 = EDGE_LOOP ( 'NONE', ( #103, #45, #262, #67 ) ) ;
#16 = EDGE_CURVE ( 'NONE', #184, #309, #213, .T. ) ;
#17 = FACE_OUTER_BOUND ( 'NONE', #291, .T. ) ;
#18 =( GEOMETRIC_REPRESENTATION_CONTEXT ( 3 ) GLOBAL_UNCERTAINTY_ASSIGNED_CONTEXT ( ( #86 ) ) GLOBAL_UNIT_ASSIGNED_CONTEXT ( ( #346, #314, #28 ) ) REPRESENTATION_CONTEXT ( 'NONE', 'WORKASPACE' ) );
#19 = VERTEX_POINT ( 'NONE', #156 ) ;
#20 = LINE ( 'NONE', #341, #113 ) ;
#21 = ORIENTED_EDGE ( 'NONE', *, *, #3, .F. ) ;
#22 = LINE ( 'NONE', #235, #116 ) ;
#23 = LINE ( 'NONE', #129, #318 ) ;
#24 = VECTOR ( 'NONE', #190, 39.37007874015748143 ) ;
#25 = PRESENTATION_LAYER_ASSIGNMENT (  '', '', ( #163 ) ) ;
#26 = VECTOR ( 'NONE', #276, 39.37007874015748143 ) ;
#27 = PLANE ( 'NONE',  #237 ) ;
#28 =( NAMED_UNIT ( * ) SI_UNIT ( $, .STERADIAN. ) SOLID_ANGLE_UNIT ( ) );
#29 = VERTEX_POINT ( 'NONE', #319 ) ;
#30 = PRESENTATION_STYLE_ASSIGNMENT (( #234 ) ) ;
#31 = EDGE_CURVE ( 'NONE', #312, #19, #22, .T. ) ;
#32 = ORIENTED_EDGE ( 'NONE', *, *, #317, .F. ) ;
#33 = CARTESIAN_POINT ( 'NONE',  ( 29.50000000000000000, 0.000000000000000000, 0.000000000000000000 ) ) ;
#34 = VECTOR ( 'NONE', #126, 39.37007874015748143 ) ;
#35 = FACE_OUTER_BOUND ( 'NONE', #231, .T. ) ;
#36 = CARTESIAN_POINT ( 'NONE',  ( -29.50000000000000000, -0.5000000000000000000, 0.5000000000000000000 ) ) ;
#37 = DIRECTION ( 'NONE',  ( 0.000000000000000000, 1.000000000000000000, 0.000000000000000000 ) ) ;
#38 = LINE ( 'NONE', #193, #326 ) ;
#39 = VECTOR ( 'NONE', #93, 39.37007874015748143 ) ;
#40 = DIRECTION ( 'NONE',  ( 0.000000000000000000, 0.000000000000000000, -1.000000000000000000 ) ) ;
#41 = ORIENTED_EDGE ( 'NONE', *, *, #343, .T. ) ;
#42 = VECTOR ( 'NONE', #153, 39.37007874015748143 ) ;
#43 = DIRECTION ( 'NONE',  ( 0.000000000000000000, 0.000000000000000000, -1.000000000000000000 ) ) ;
#44 = PLANE ( 'NONE',  #99 ) ;
#45 = ORIENTED_EDGE ( 'NONE', *, *, #252, .T. ) ;
#46 = LINE ( 'NONE', #306, #71 ) ;
#47 = SURFACE_SIDE_STYLE ('',( #72 ) ) ;
#48 = EDGE_LOOP ( 'NONE', ( #209, #122, #315, #335 ) ) ;
#49 = APPLICATION_CONTEXT ( 'automotive_design' ) ;
#50 = PRESENTATION_STYLE_ASSIGNMENT (( #106 ) ) ;
#51 = CARTESIAN_POINT ( 'NONE',  ( 29.50000000000000000, 0.4375000000000000000, -0.4375000000000000000 ) ) ;
#52 = EDGE_CURVE ( 'NONE', #293, #283, #208, .T. ) ;
#53 = ORIENTED_EDGE ( 'NONE', *, *, #252, .F. ) ;
#54 = CARTESIAN_POINT ( 'NONE',  ( 29.50000000000000000, 0.5000000000000000000, 0.5000000000000000000 ) ) ;
#55 = AXIS2_PLACEMENT_3D ( 'NONE', #248, #82, #300 ) ;
#56 = LINE ( 'NONE', #301, #272 ) ;
#57 = VECTOR ( 'NONE', #37, 39.37007874015748143 ) ;
#58 = CARTESIAN_POINT ( 'NONE',  ( 29.50000000000000000, -0.4375000000000000000, 0.000000000000000000 ) ) ;
#59 = LINE ( 'NONE', #217, #24 ) ;
#60 = CARTESIAN_POINT ( 'NONE',  ( -29.50000000000000000, 0.4375000000000000000, 0.4375000000000000000 ) ) ;
#61 = EDGE_CURVE ( 'NONE', #29, #312, #23, .T. ) ;
#62 =( LENGTH_UNIT ( ) NAMED_UNIT ( * ) SI_UNIT ( $, .METRE. ) );
#63 = ADVANCED_FACE ( 'NONE', ( #267 ), #27, .F. ) ;
#64 = CARTESIAN_POINT ( 'NONE',  ( -29.50000000000000000, -0.4375000000000000000, -0.4375000000000000000 ) ) ;
#65 = ORIENTED_EDGE ( 'NONE', *, *, #61, .F. ) ;
#66 = VECTOR ( 'NONE', #144, 39.37007874015748143 ) ;
#67 = ORIENTED_EDGE ( 'NONE', *, *, #270, .T. ) ;
#68 = ORIENTED_EDGE ( 'NONE', *, *, #279, .T. ) ;
#69 = PLANE ( 'NONE',  #265 ) ;
#70 = ORIENTED_EDGE ( 'NONE', *, *, #214, .F. ) ;
#71 = VECTOR ( 'NONE', #334, 39.37007874015748143 ) ;
#72 = SURFACE_STYLE_FILL_AREA ( #271 ) ;
#73 = EDGE_LOOP ( 'NONE', ( #182, #203, #65, #105 ) ) ;
#74 = ORIENTED_EDGE ( 'NONE', *, *, #85, .F. ) ;
#75 = PRODUCT_CONTEXT ( 'NONE', #49, 'mechanical' ) ;
#76 = ORIENTED_EDGE ( 'NONE', *, *, #78, .T. ) ;
#77 = CARTESIAN_POINT ( 'NONE',  ( 29.50000000000000000, -0.5000000000000000000, -0.5000000000000000000 ) ) ;
#78 = EDGE_CURVE ( 'NONE', #312, #310, #181, .T. ) ;
#79 = PRODUCT_DEFINITION_SHAPE ( 'NONE', 'NONE',  #303 ) ;
#80 = VERTEX_POINT ( 'NONE', #155 ) ;
#81 = CARTESIAN_POINT ( 'NONE',  ( 29.50000000000000000, -0.4375000000000000000, -0.4375000000000000000 ) ) ;
#82 = DIRECTION ( 'NONE',  ( 0.000000000000000000, 0.000000000000000000, -1.000000000000000000 ) ) ;
#83 = LINE ( 'NONE', #192, #168 ) ;
#84 = DIRECTION ( 'NONE',  ( 0.000000000000000000, -1.000000000000000000, 0.000000000000000000 ) ) ;
#85 = EDGE_CURVE ( 'NONE', #283, #147, #112, .T. ) ;
#86 = UNCERTAINTY_MEASURE_WITH_UNIT (LENGTH_MEASURE( 1.000000000000000082E-05 ), #346, 'distance_accuracy_value', 'NONE');
#87 = LINE ( 'NONE', #330, #26 ) ;
#88 = EDGE_CURVE ( 'NONE', #19, #293, #218, .T. ) ;
#89 = CARTESIAN_POINT ( 'NONE',  ( 29.50000000000000000, -0.4375000000000000000, 0.4375000000000000000 ) ) ;
#90 = ORIENTED_EDGE ( 'NONE', *, *, #3, .T. ) ;
#91 = CARTESIAN_POINT ( 'NONE',  ( 29.50000000000000000, -0.5000000000000000000, 0.5000000000000000000 ) ) ;
#92 = VERTEX_POINT ( 'NONE', #5 ) ;
#93 = DIRECTION ( 'NONE',  ( -1.000000000000000000, -0.000000000000000000, -0.000000000000000000 ) ) ;
#94 = VERTEX_POINT ( 'NONE', #9 ) ;
#95 = CARTESIAN_POINT ( 'NONE',  ( -29.50000000000000000, 0.5000000000000000000, -0.5000000000000000000 ) ) ;
#96 = ORIENTED_EDGE ( 'NONE', *, *, #31, .T. ) ;
#97 = CARTESIAN_POINT ( 'NONE',  ( -29.50000000000000000, 0.5000000000000000000, 0.5000000000000000000 ) ) ;
#98 = ORIENTED_EDGE ( 'NONE', *, *, #172, .F. ) ;
#99 = AXIS2_PLACEMENT_3D ( 'NONE', #114, #259, #232 ) ;
#100 = FILL_AREA_STYLE ('',( #296 ) ) ;
#101 = VECTOR ( 'NONE', #274, 39.37007874015748143 ) ;
#102 = DIMENSIONAL_EXPONENTS ( 1.000000000000000000, 0.000000000000000000, 0.000000000000000000, 0.000000000000000000, 0.000000000000000000, 0.000000000000000000, 0.000000000000000000 ) ;
#103 = ORIENTED_EDGE ( 'NONE', *, *, #172, .T. ) ;
#104 = DIRECTION ( 'NONE',  ( 0.000000000000000000, 0.000000000000000000, 1.000000000000000000 ) ) ;
#105 = ORIENTED_EDGE ( 'NONE', *, *, #339, .T. ) ;
#106 = SURFACE_STYLE_USAGE ( .BOTH. , #2 ) ;
#107 = DIRECTION ( 'NONE',  ( 0.000000000000000000, -1.000000000000000000, 0.000000000000000000 ) ) ;
#108 = FACE_OUTER_BOUND ( 'NONE', #224, .T. ) ;
#109 = PLANE ( 'NONE',  #141 ) ;
#110 = DIRECTION ( 'NONE',  ( -0.000000000000000000, -1.000000000000000000, -0.000000000000000000 ) ) ;
#111 = ADVANCED_FACE ( 'NONE', ( #275 ), #273, .F. ) ;
#112 = LINE ( 'NONE', #36, #222 ) ;
#113 = VECTOR ( 'NONE', #123, 39.37007874015748143 ) ;
#114 = CARTESIAN_POINT ( 'NONE',  ( 29.50000000000000000, 0.000000000000000000, -0.4375000000000000000 ) ) ;
#115 = ORIENTED_EDGE ( 'NONE', *, *, #191, .T. ) ;
#116 = VECTOR ( 'NONE', #264, 39.37007874015748143 ) ;
#117 = CARTESIAN_POINT ( 'NONE',  ( 29.50000000000000000, -0.5000000000000000000, -0.5000000000000000000 ) ) ;
#118 = ORIENTED_EDGE ( 'NONE', *, *, #270, .F. ) ;
#119 = PLANE ( 'NONE',  #128 ) ;
#120 = ORIENTED_EDGE ( 'NONE', *, *, #52, .T. ) ;
#121 = LINE ( 'NONE', #89, #216 ) ;
#122 = ORIENTED_EDGE ( 'NONE', *, *, #279, .F. ) ;
#123 = DIRECTION ( 'NONE',  ( -1.000000000000000000, -0.000000000000000000, -0.000000000000000000 ) ) ;
#124 = EDGE_CURVE ( 'NONE', #310, #293, #246, .T. ) ;
#125 = ORIENTED_EDGE ( 'NONE', *, *, #185, .F. ) ;
#126 = DIRECTION ( 'NONE',  ( 0.000000000000000000, 1.000000000000000000, 0.000000000000000000 ) ) ;
#127 = ADVANCED_FACE ( 'NONE', ( #35 ), #215, .T. ) ;
#128 = AXIS2_PLACEMENT_3D ( 'NONE', #142, #281, #250 ) ;
#129 = CARTESIAN_POINT ( 'NONE',  ( 29.50000000000000000, -0.5000000000000000000, 0.5000000000000000000 ) ) ;
#130 = DIMENSIONAL_EXPONENTS ( 1.000000000000000000, 0.000000000000000000, 0.000000000000000000, 0.000000000000000000, 0.000000000000000000, 0.000000000000000000, 0.000000000000000000 ) ;
#131 = COLOUR_RGB ( '',0.8666666666666666963, 0.9098039215686274384, 1.000000000000000000 ) ;
#132 =( LENGTH_UNIT ( ) NAMED_UNIT ( * ) SI_UNIT ( $, .METRE. ) );
#133 = ORIENTED_EDGE ( 'NONE', *, *, #202, .F. ) ;
#134 = FACE_OUTER_BOUND ( 'NONE', #287, .T. ) ;
#135 = LINE ( 'NONE', #7, #328 ) ;
#136 = DIRECTION ( 'NONE',  ( 0.000000000000000000, -0.000000000000000000, 1.000000000000000000 ) ) ;
#137 = DIRECTION ( 'NONE',  ( 0.000000000000000000, 0.000000000000000000, 1.000000000000000000 ) ) ;
#138 = PRODUCT_RELATED_PRODUCT_CATEGORY ( 'part', '', ( #322 ) ) ;
#139 = DIRECTION ( 'NONE',  ( 0.000000000000000000, -0.000000000000000000, -1.000000000000000000 ) ) ;
#140 =( NAMED_UNIT ( * ) SI_UNIT ( $, .STERADIAN. ) SOLID_ANGLE_UNIT ( ) );
#141 = AXIS2_PLACEMENT_3D ( 'NONE', #245, #84, #139 ) ;
#142 = CARTESIAN_POINT ( 'NONE',  ( 29.50000000000000000, 0.4375000000000000000, 0.000000000000000000 ) ) ;
#143 = MECHANICAL_DESIGN_GEOMETRIC_PRESENTATION_REPRESENTATION (  '', ( #177 ), #188 ) ;
#144 = DIRECTION ( 'NONE',  ( 0.000000000000000000, 0.000000000000000000, 1.000000000000000000 ) ) ;
#145 = ORIENTED_EDGE ( 'NONE', *, *, #78, .F. ) ;
#146 = CARTESIAN_POINT ( 'NONE',  ( -29.50000000000000000, 0.4375000000000000000, -0.4375000000000000000 ) ) ;
#147 = VERTEX_POINT ( 'NONE', #219 ) ;
#148 = CARTESIAN_POINT ( 'NONE',  ( -29.50000000000000000, 0.4375000000000000000, 0.000000000000000000 ) ) ;
#149 = EDGE_LOOP ( 'NONE', ( #337, #176, #70, #41 ) ) ;
#150 = EDGE_CURVE ( 'NONE', #205, #94, #135, .T. ) ;
#151 =( NAMED_UNIT ( * ) PLANE_ANGLE_UNIT ( ) SI_UNIT ( $, .RADIAN. ) );
#152 = CARTESIAN_POINT ( 'NONE',  ( 29.50000000000000000, 0.000000000000000000, -0.4375000000000000000 ) ) ;
#153 = DIRECTION ( 'NONE',  ( 0.000000000000000000, 0.000000000000000000, 1.000000000000000000 ) ) ;
#154 = FILL_AREA_STYLE_COLOUR ( '', #294 ) ;
#155 = CARTESIAN_POINT ( 'NONE',  ( 29.50000000000000000, 0.5000000000000000000, 0.5000000000000000000 ) ) ;
#156 = CARTESIAN_POINT ( 'NONE',  ( -29.50000000000000000, -0.5000000000000000000, -0.5000000000000000000 ) ) ;
#157 = AXIS2_PLACEMENT_3D ( 'NONE', #91, #43, #338 ) ;
#158 = DIRECTION ( 'NONE',  ( -1.000000000000000000, -0.000000000000000000, -0.000000000000000000 ) ) ;
#159 = PRESENTATION_LAYER_ASSIGNMENT (  '', '', ( #177 ) ) ;
#160 = DIRECTION ( 'NONE',  ( 0.000000000000000000, 0.000000000000000000, -1.000000000000000000 ) ) ;
#161 = CARTESIAN_POINT ( 'NONE',  ( -29.50000000000000000, -0.5000000000000000000, -0.5000000000000000000 ) ) ;
#162 = CARTESIAN_POINT ( 'NONE',  ( 29.50000000000000000, 0.000000000000000000, 0.4375000000000000000 ) ) ;
#163 = STYLED_ITEM ( 'NONE', ( #30 ), #324 ) ;
#164 = DIRECTION ( 'NONE',  ( 0.000000000000000000, 0.000000000000000000, -1.000000000000000000 ) ) ;
#165 = PRODUCT_DEFINITION_CONTEXT ( 'detailed design', #189, 'design' ) ;
#166 = DIRECTION ( 'NONE',  ( -1.000000000000000000, -0.000000000000000000, -0.000000000000000000 ) ) ;
#167 = ORIENTED_EDGE ( 'NONE', *, *, #16, .T. ) ;
#168 = VECTOR ( 'NONE', #8, 39.37007874015748143 ) ;
#169 = ORIENTED_EDGE ( 'NONE', *, *, #214, .T. ) ;
#170 = VECTOR ( 'NONE', #295, 39.37007874015748143 ) ;
#171 = ORIENTED_EDGE ( 'NONE', *, *, #212, .F. ) ;
#172 = EDGE_CURVE ( 'NONE', #342, #333, #87, .T. ) ;
#173 = LINE ( 'NONE', #148, #66 ) ;
#174 = ORIENTED_EDGE ( 'NONE', *, *, #61, .T. ) ;
#175 = APPLICATION_PROTOCOL_DEFINITION ( 'draft international standard', 'automotive_design', 1998, #189 ) ;
#176 = ORIENTED_EDGE ( 'NONE', *, *, #339, .F. ) ;
#177 = STYLED_ITEM ( 'NONE', ( #50 ), #10 ) ;
#178 = APPLICATION_PROTOCOL_DEFINITION ( 'draft international standard', 'automotive_design', 1998, #49 ) ;
#179 = ORIENTED_EDGE ( 'NONE', *, *, #317, .T. ) ;
#180 = LENGTH_MEASURE_WITH_UNIT ( LENGTH_MEASURE( 0.02539999999999999897 ), #132 );
#181 = LINE ( 'NONE', #77, #170 ) ;
#182 = ORIENTED_EDGE ( 'NONE', *, *, #212, .T. ) ;
#183 = ADVANCED_FACE ( 'NONE', ( #108 ), #109, .F. ) ;
#184 = VERTEX_POINT ( 'NONE', #81 ) ;
#185 = EDGE_CURVE ( 'NONE', #310, #80, #194, .T. ) ;
#186 = AXIS2_PLACEMENT_3D ( 'NONE', #33, #247, #160 ) ;
#187 = PLANE ( 'NONE',  #186 ) ;
#188 =( GEOMETRIC_REPRESENTATION_CONTEXT ( 3 ) GLOBAL_UNCERTAINTY_ASSIGNED_CONTEXT ( ( #304 ) ) GLOBAL_UNIT_ASSIGNED_CONTEXT ( ( #211, #151, #263 ) ) REPRESENTATION_CONTEXT ( 'NONE', 'WORKASPACE' ) );
#189 = APPLICATION_CONTEXT ( 'automotive_design' ) ;
#190 = DIRECTION ( 'NONE',  ( -0.000000000000000000, -1.000000000000000000, -0.000000000000000000 ) ) ;
#191 = EDGE_CURVE ( 'NONE', #184, #342, #38, .T. ) ;
#192 = CARTESIAN_POINT ( 'NONE',  ( 29.50000000000000000, 0.4375000000000000000, 0.000000000000000000 ) ) ;
#193 = CARTESIAN_POINT ( 'NONE',  ( 29.50000000000000000, -0.4375000000000000000, -0.4375000000000000000 ) ) ;
#194 = LINE ( 'NONE', #54, #316 ) ;
#195 = LINE ( 'NONE', #308, #297 ) ;
#196 = ORIENTED_EDGE ( 'NONE', *, *, #343, .F. ) ;
#197 = LENGTH_MEASURE_WITH_UNIT ( LENGTH_MEASURE( 0.02539999999999999897 ), #62 );
#198 = ORIENTED_EDGE ( 'NONE', *, *, #16, .F. ) ;
#199 = ADVANCED_FACE ( 'NONE', ( #134, #298 ), #187, .T. ) ;
#200 = ORIENTED_EDGE ( 'NONE', *, *, #124, .T. ) ;
#202 = EDGE_CURVE ( 'NONE', #309, #258, #83, .T. ) ;
#201 = FACE_OUTER_BOUND ( 'NONE', #233, .T. ) ;
#203 = ORIENTED_EDGE ( 'NONE', *, *, #31, .F. ) ;
#204 = DIRECTION ( 'NONE',  ( 1.000000000000000000, 0.000000000000000000, 0.000000000000000000 ) ) ;
#205 = VERTEX_POINT ( 'NONE', #60 ) ;
#206 = CARTESIAN_POINT ( 'NONE',  ( -29.50000000000000000, 0.5000000000000000000, 0.5000000000000000000 ) ) ;
#207 = VECTOR ( 'NONE', #243, 39.37007874015748143 ) ;
#208 = LINE ( 'NONE', #206, #42 ) ;
#209 = ORIENTED_EDGE ( 'NONE', *, *, #150, .F. ) ;
#210 = AXIS2_PLACEMENT_3D ( 'NONE', #1, #242, #204 ) ;
#211 =( CONVERSION_BASED_UNIT ( 'INCH', #347 ) LENGTH_UNIT ( ) NAMED_UNIT ( #102 ) );
#212 = EDGE_CURVE ( 'NONE', #147, #19, #56, .T. ) ;
#213 = LINE ( 'NONE', #152, #34 ) ;
#214 = EDGE_CURVE ( 'NONE', #80, #29, #59, .T. ) ;
#215 = PLANE ( 'NONE',  #284 ) ;
#216 = VECTOR ( 'NONE', #166, 39.37007874015748143 ) ;
#217 = CARTESIAN_POINT ( 'NONE',  ( 29.50000000000000000, -0.5000000000000000000, 0.5000000000000000000 ) ) ;
#218 = LINE ( 'NONE', #161, #57 ) ;
#219 = CARTESIAN_POINT ( 'NONE',  ( -29.50000000000000000, -0.5000000000000000000, 0.5000000000000000000 ) ) ;
#220 = UNCERTAINTY_MEASURE_WITH_UNIT (LENGTH_MEASURE( 1.000000000000000082E-05 ), #280, 'distance_accuracy_value', 'NONE');
#221 = DIRECTION ( 'NONE',  ( 0.000000000000000000, -1.000000000000000000, 0.000000000000000000 ) ) ;
#222 = VECTOR ( 'NONE', #110, 39.37007874015748143 ) ;
#223 = DIRECTION ( 'NONE',  ( -1.000000000000000000, -0.000000000000000000, -0.000000000000000000 ) ) ;
#224 = EDGE_LOOP ( 'NONE', ( #120, #196, #125, #200 ) ) ;
#225 = CARTESIAN_POINT ( 'NONE',  ( 29.50000000000000000, 0.5000000000000000000, -0.5000000000000000000 ) ) ;
#226 = ORIENTED_EDGE ( 'NONE', *, *, #249, .F. ) ;
#227 = CARTESIAN_POINT ( 'NONE',  ( 29.50000000000000000, 0.5000000000000000000, 0.5000000000000000000 ) ) ;
#228 = ORIENTED_EDGE ( 'NONE', *, *, #191, .F. ) ;
#229 = ADVANCED_FACE ( 'NONE', ( #244 ), #327, .T. ) ;
#230 = PLANE ( 'NONE',  #157 ) ;
#231 = EDGE_LOOP ( 'NONE', ( #118, #226, #179, #115 ) ) ;
#232 = DIRECTION ( 'NONE',  ( 1.000000000000000000, 0.000000000000000000, -0.000000000000000000 ) ) ;
#233 = EDGE_LOOP ( 'NONE', ( #98, #228, #167, #90 ) ) ;
#234 = SURFACE_STYLE_USAGE ( .BOTH. , #47 ) ;
#235 = CARTESIAN_POINT ( 'NONE',  ( 29.50000000000000000, -0.5000000000000000000, -0.5000000000000000000 ) ) ;
#236 = DIRECTION ( 'NONE',  ( 0.000000000000000000, 0.000000000000000000, -1.000000000000000000 ) ) ;
#237 = AXIS2_PLACEMENT_3D ( 'NONE', #238, #104, #320 ) ;
#238 = CARTESIAN_POINT ( 'NONE',  ( 29.50000000000000000, -0.5000000000000000000, -0.5000000000000000000 ) ) ;
#239 = EDGE_CURVE ( 'NONE', #258, #92, #4, .T. ) ;
#240 = EDGE_LOOP ( 'NONE', ( #307, #289, #145, #96 ) ) ;
#241 = ADVANCED_FACE ( 'NONE', ( #201 ), #44, .T. ) ;
#242 = DIRECTION ( 'NONE',  ( 0.000000000000000000, 0.000000000000000000, 1.000000000000000000 ) ) ;
#243 = DIRECTION ( 'NONE',  ( -1.000000000000000000, -0.000000000000000000, -0.000000000000000000 ) ) ;
#244 = FACE_OUTER_BOUND ( 'NONE', #48, .T. ) ;
#245 = CARTESIAN_POINT ( 'NONE',  ( 29.50000000000000000, 0.5000000000000000000, 0.5000000000000000000 ) ) ;
#246 = LINE ( 'NONE', #331, #101 ) ;
#247 = DIRECTION ( 'NONE',  ( 1.000000000000000000, 0.000000000000000000, 0.000000000000000000 ) ) ;
#248 = CARTESIAN_POINT ( 'NONE',  ( 29.50000000000000000, 0.000000000000000000, 0.4375000000000000000 ) ) ;
#249 = EDGE_CURVE ( 'NONE', #92, #94, #121, .T. ) ;
#250 = DIRECTION ( 'NONE',  ( 0.000000000000000000, -0.000000000000000000, -1.000000000000000000 ) ) ;
#251 = VECTOR ( 'NONE', #107, 39.37007874015748143 ) ;
#252 = EDGE_CURVE ( 'NONE', #333, #205, #173, .T. ) ;
#253 = EDGE_LOOP ( 'NONE', ( #133, #198, #32, #13 ) ) ;
#254 = AXIS2_PLACEMENT_3D ( 'NONE', #325, #302, #136 ) ;
#255 = CARTESIAN_POINT ( 'NONE',  ( 29.50000000000000000, 0.4375000000000000000, 0.4375000000000000000 ) ) ;
#256 = ORIENTED_EDGE ( 'NONE', *, *, #202, .T. ) ;
#257 = CARTESIAN_POINT ( 'NONE',  ( -29.50000000000000000, 0.000000000000000000, 0.000000000000000000 ) ) ;
#258 = VERTEX_POINT ( 'NONE', #286 ) ;
#259 = DIRECTION ( 'NONE',  ( 0.000000000000000000, 0.000000000000000000, 1.000000000000000000 ) ) ;
#260 = ORIENTED_EDGE ( 'NONE', *, *, #185, .T. ) ;
#261 = FACE_BOUND ( 'NONE', #15, .T. ) ;
#262 = ORIENTED_EDGE ( 'NONE', *, *, #150, .T. ) ;
#263 =( NAMED_UNIT ( * ) SI_UNIT ( $, .STERADIAN. ) SOLID_ANGLE_UNIT ( ) );
#264 = DIRECTION ( 'NONE',  ( -1.000000000000000000, -0.000000000000000000, -0.000000000000000000 ) ) ;
#265 = AXIS2_PLACEMENT_3D ( 'NONE', #257, #288, #14 ) ;
#266 = DIMENSIONAL_EXPONENTS ( 1.000000000000000000, 0.000000000000000000, 0.000000000000000000, 0.000000000000000000, 0.000000000000000000, 0.000000000000000000, 0.000000000000000000 ) ;
#267 = FACE_OUTER_BOUND ( 'NONE', #240, .T. ) ;
#268 = ADVANCED_FACE ( 'NONE', ( #17 ), #119, .T. ) ;
#269 =( LENGTH_UNIT ( ) NAMED_UNIT ( * ) SI_UNIT ( $, .METRE. ) );
#270 = EDGE_CURVE ( 'NONE', #94, #342, #195, .T. ) ;
#271 = FILL_AREA_STYLE ('',( #154 ) ) ;
#272 = VECTOR ( 'NONE', #164, 39.37007874015748143 ) ;
#273 = PLANE ( 'NONE',  #254 ) ;
#274 = DIRECTION ( 'NONE',  ( -1.000000000000000000, -0.000000000000000000, -0.000000000000000000 ) ) ;
#275 = FACE_OUTER_BOUND ( 'NONE', #73, .T. ) ;
#276 = DIRECTION ( 'NONE',  ( 0.000000000000000000, 1.000000000000000000, 0.000000000000000000 ) ) ;
#277 = ADVANCED_FACE ( 'NONE', ( #336 ), #230, .F. ) ;
#278 = DIRECTION ( 'NONE',  ( -0.000000000000000000, 1.000000000000000000, 0.000000000000000000 ) ) ;
#279 = EDGE_CURVE ( 'NONE', #258, #205, #332, .T. ) ;
#280 =( CONVERSION_BASED_UNIT ( 'INCH', #197 ) LENGTH_UNIT ( ) NAMED_UNIT ( #266 ) );
#281 = DIRECTION ( 'NONE',  ( 0.000000000000000000, -1.000000000000000000, 0.000000000000000000 ) ) ;
#282 =( GEOMETRIC_REPRESENTATION_CONTEXT ( 3 ) GLOBAL_UNCERTAINTY_ASSIGNED_CONTEXT ( ( #220 ) ) GLOBAL_UNIT_ASSIGNED_CONTEXT ( ( #280, #285, #140 ) ) REPRESENTATION_CONTEXT ( 'NONE', 'WORKASPACE' ) );
#283 = VERTEX_POINT ( 'NONE', #97 ) ;
#284 = AXIS2_PLACEMENT_3D ( 'NONE', #58, #278, #329 ) ;
#285 =( NAMED_UNIT ( * ) PLANE_ANGLE_UNIT ( ) SI_UNIT ( $, .RADIAN. ) );
#286 = CARTESIAN_POINT ( 'NONE',  ( 29.50000000000000000, 0.4375000000000000000, 0.4375000000000000000 ) ) ;
#287 = EDGE_LOOP ( 'NONE', ( #76, #260, #169, #174 ) ) ;
#288 = DIRECTION ( 'NONE',  ( 1.000000000000000000, 0.000000000000000000, 0.000000000000000000 ) ) ;
#289 = ORIENTED_EDGE ( 'NONE', *, *, #124, .F. ) ;
#290 = SHAPE_DEFINITION_REPRESENTATION ( #79, #324 ) ;
#291 = EDGE_LOOP ( 'NONE', ( #53, #21, #256, #68 ) ) ;
#292 = SURFACE_STYLE_FILL_AREA ( #100 ) ;
#293 = VERTEX_POINT ( 'NONE', #95 ) ;
#294 = COLOUR_RGB ( '',0.8666666666666666963, 0.9098039215686274384, 1.000000000000000000 ) ;
#295 = DIRECTION ( 'NONE',  ( 0.000000000000000000, 1.000000000000000000, 0.000000000000000000 ) ) ;
#296 = FILL_AREA_STYLE_COLOUR ( '', #131 ) ;
#297 = VECTOR ( 'NONE', #40, 39.37007874015748143 ) ;
#298 = FACE_BOUND ( 'NONE', #253, .T. ) ;
#299 = CLOSED_SHELL ( 'NONE', ( #199, #313, #63, #183, #277, #111, #241, #268, #229, #127 ) ) ;
#300 = DIRECTION ( 'NONE',  ( -1.000000000000000000, 0.000000000000000000, -0.000000000000000000 ) ) ;
#301 = CARTESIAN_POINT ( 'NONE',  ( -29.50000000000000000, -0.5000000000000000000, 0.5000000000000000000 ) ) ;
#302 = DIRECTION ( 'NONE',  ( -0.000000000000000000, 1.000000000000000000, 0.000000000000000000 ) ) ;
#303 = PRODUCT_DEFINITION ( 'UNKNOWN', '', #321, #165 ) ;
#304 = UNCERTAINTY_MEASURE_WITH_UNIT (LENGTH_MEASURE( 1.000000000000000082E-05 ), #211, 'distance_accuracy_value', 'NONE');
#305 = LINE ( 'NONE', #227, #39 ) ;
#306 = CARTESIAN_POINT ( 'NONE',  ( 29.50000000000000000, -0.4375000000000000000, 0.000000000000000000 ) ) ;
#307 = ORIENTED_EDGE ( 'NONE', *, *, #88, .T. ) ;
#308 = CARTESIAN_POINT ( 'NONE',  ( -29.50000000000000000, -0.4375000000000000000, 0.000000000000000000 ) ) ;
#309 = VERTEX_POINT ( 'NONE', #12 ) ;
#310 = VERTEX_POINT ( 'NONE', #225 ) ;
#311 = FACE_OUTER_BOUND ( 'NONE', #340, .T. ) ;
#312 = VERTEX_POINT ( 'NONE', #117 ) ;
#313 = ADVANCED_FACE ( 'NONE', ( #311, #261 ), #69, .F. ) ;
#314 =( NAMED_UNIT ( * ) PLANE_ANGLE_UNIT ( ) SI_UNIT ( $, .RADIAN. ) );
#315 = ORIENTED_EDGE ( 'NONE', *, *, #239, .T. ) ;
#316 = VECTOR ( 'NONE', #137, 39.37007874015748143 ) ;
#317 = EDGE_CURVE ( 'NONE', #92, #184, #46, .T. ) ;
#318 = VECTOR ( 'NONE', #236, 39.37007874015748143 ) ;
#319 = CARTESIAN_POINT ( 'NONE',  ( 29.50000000000000000, -0.5000000000000000000, 0.5000000000000000000 ) ) ;
#320 = DIRECTION ( 'NONE',  ( 1.000000000000000000, 0.000000000000000000, -0.000000000000000000 ) ) ;
#321 = PRODUCT_DEFINITION_FORMATION_WITH_SPECIFIED_SOURCE ( 'ANY', '', #322, .NOT_KNOWN. ) ;
#322 = PRODUCT ( 'WCP-0079 Rev1', 'WCP-0079 Rev1', '', ( #75 ) ) ;
#323 = ORIENTED_EDGE ( 'NONE', *, *, #52, .F. ) ;
#324 = ADVANCED_BREP_SHAPE_REPRESENTATION ( 'WCP-0079 Rev1', ( #10, #210 ), #282 ) ;
#325 = CARTESIAN_POINT ( 'NONE',  ( 29.50000000000000000, -0.5000000000000000000, 0.5000000000000000000 ) ) ;
#326 = VECTOR ( 'NONE', #158, 39.37007874015748143 ) ;
#327 = PLANE ( 'NONE',  #55 ) ;
#328 = VECTOR ( 'NONE', #221, 39.37007874015748143 ) ;
#329 = DIRECTION ( 'NONE',  ( 0.000000000000000000, -0.000000000000000000, 1.000000000000000000 ) ) ;
#330 = CARTESIAN_POINT ( 'NONE',  ( -29.50000000000000000, 0.000000000000000000, -0.4375000000000000000 ) ) ;
#331 = CARTESIAN_POINT ( 'NONE',  ( 29.50000000000000000, 0.5000000000000000000, -0.5000000000000000000 ) ) ;
#332 = LINE ( 'NONE', #255, #345 ) ;
#333 = VERTEX_POINT ( 'NONE', #146 ) ;
#334 = DIRECTION ( 'NONE',  ( 0.000000000000000000, 0.000000000000000000, -1.000000000000000000 ) ) ;
#335 = ORIENTED_EDGE ( 'NONE', *, *, #249, .T. ) ;
#336 = FACE_OUTER_BOUND ( 'NONE', #149, .T. ) ;
#337 = ORIENTED_EDGE ( 'NONE', *, *, #85, .T. ) ;
#338 = DIRECTION ( 'NONE',  ( -1.000000000000000000, 0.000000000000000000, -0.000000000000000000 ) ) ;
#339 = EDGE_CURVE ( 'NONE', #29, #147, #20, .T. ) ;
#340 = EDGE_LOOP ( 'NONE', ( #11, #171, #74, #323 ) ) ;
#341 = CARTESIAN_POINT ( 'NONE',  ( 29.50000000000000000, -0.5000000000000000000, 0.5000000000000000000 ) ) ;
#342 = VERTEX_POINT ( 'NONE', #64 ) ;
#343 = EDGE_CURVE ( 'NONE', #80, #283, #305, .T. ) ;
#344 = LINE ( 'NONE', #51, #207 ) ;
#345 = VECTOR ( 'NONE', #223, 39.37007874015748143 ) ;
#346 =( CONVERSION_BASED_UNIT ( 'INCH', #180 ) LENGTH_UNIT ( ) NAMED_UNIT ( #130 ) );
#347 = LENGTH_MEASURE_WITH_UNIT ( LENGTH_MEASURE( 0.02539999999999999897 ), #269 );
ENDSEC;
END-ISO-10303-21;
