ISO-10303-21;
HEADER;
FILE_DESCRIPTION (( 'STEP AP214' ),
    '1' );
FILE_NAME ('WCP-0039.step',
    '2022-01-07T22:50:31',
    ( '' ),
    ( '' ),
    'SwSTEP 2.0',
    'SolidWorks 2020',
    '' );
FILE_SCHEMA (( 'AUTOMOTIVE_DESIGN' ));
ENDSEC;

DATA;
#1 = DIRECTION ( 'NONE',  ( 0.000000000000000000, -0.000000000000000000, 1.000000000000000000 ) ) ;
#2 = STYLED_ITEM ( 'NONE', ( #162 ), #53 ) ;
#3 = EDGE_LOOP ( 'NONE', ( #77, #216 ) ) ;
#4 = LINE ( 'NONE', #208, #177 ) ;
#5 = DIRECTION ( 'NONE',  ( 0.000000000000000000, 1.000000000000000000, 0.000000000000000000 ) ) ;
#6 = CARTESIAN_POINT ( 'NONE',  ( 0.000000000000000000, 0.005905511811023621965, -0.1875000000000000278 ) ) ;
#7 = MECHANICAL_DESIGN_GEOMETRIC_PRESENTATION_REPRESENTATION (  '', ( #159 ), #61 ) ;
#8 = APPLICATION_PROTOCOL_DEFINITION ( 'draft international standard', 'automotive_design', 1998, #116 ) ;
#9 = ORIENTED_EDGE ( 'NONE', *, *, #175, .T. ) ;
#10 =( CONVERSION_BASED_UNIT ( 'INCH', #99 ) LENGTH_UNIT ( ) NAMED_UNIT ( #92 ) );
#11 = ORIENTED_EDGE ( 'NONE', *, *, #220, .F. ) ;
#12 =( NAMED_UNIT ( * ) PLANE_ANGLE_UNIT ( ) SI_UNIT ( $, .RADIAN. ) );
#13 = VECTOR ( 'NONE', #118, 39.37007874015748143 ) ;
#14 = EDGE_CURVE ( 'NONE', #86, #123, #105, .T. ) ;
#15 =( NAMED_UNIT ( * ) SI_UNIT ( $, .STERADIAN. ) SOLID_ANGLE_UNIT ( ) );
#16 = FILL_AREA_STYLE_COLOUR ( '', #100 ) ;
#17 = PRODUCT_DEFINITION_CONTEXT ( 'detailed design', #199, 'design' ) ;
#18 = CARTESIAN_POINT ( 'NONE',  ( 0.000000000000000000, 0.005905511811023621965, 0.000000000000000000 ) ) ;
#19 = DIRECTION ( 'NONE',  ( 0.000000000000000000, 0.000000000000000000, 1.000000000000000000 ) ) ;
#20 = FACE_OUTER_BOUND ( 'NONE', #33, .T. ) ;
#21 = AXIS2_PLACEMENT_3D ( 'NONE', #93, #163, #1 ) ;
#22 = PRESENTATION_LAYER_ASSIGNMENT (  '', '', ( #2 ) ) ;
#23 = CARTESIAN_POINT ( 'NONE',  ( 2.296212748401287726E-17, 0.005905511811023621965, 0.1875000000000000278 ) ) ;
#24 = CARTESIAN_POINT ( 'NONE',  ( 0.000000000000000000, -0.005905511811023621965, -0.1250000000000000000 ) ) ;
#25 = AXIS2_PLACEMENT_3D ( 'NONE', #204, #41, #19 ) ;
#26 = EDGE_LOOP ( 'NONE', ( #82, #9, #94, #11 ) ) ;
#27 = PRESENTATION_STYLE_ASSIGNMENT (( #139 ) ) ;
#28 = FACE_OUTER_BOUND ( 'NONE', #78, .T. ) ;
#29 = EDGE_CURVE ( 'NONE', #123, #86, #144, .T. ) ;
#30 = VECTOR ( 'NONE', #150, 39.37007874015748143 ) ;
#31 = ORIENTED_EDGE ( 'NONE', *, *, #113, .T. ) ;
#32 = DIRECTION ( 'NONE',  ( -0.000000000000000000, -1.000000000000000000, -0.000000000000000000 ) ) ;
#33 = EDGE_LOOP ( 'NONE', ( #31, #149, #50, #80 ) ) ;
#34 = LINE ( 'NONE', #6, #13 ) ;
#35 = EDGE_CURVE ( 'NONE', #75, #88, #184, .T. ) ;
#36 = EDGE_LOOP ( 'NONE', ( #98, #210, #176, #117 ) ) ;
#37 = COLOUR_RGB ( '',0.8666666666666666963, 0.9098039215686274384, 1.000000000000000000 ) ;
#38 = CYLINDRICAL_SURFACE ( 'NONE', #90, 0.1875000000000000278 ) ;
#39 = ADVANCED_FACE ( 'NONE', ( #161 ), #38, .T. ) ;
#40 = SURFACE_SIDE_STYLE ('',( #125 ) ) ;
#41 = DIRECTION ( 'NONE',  ( 0.000000000000000000, 1.000000000000000000, 0.000000000000000000 ) ) ;
#42 = AXIS2_PLACEMENT_3D ( 'NONE', #151, #69, #209 ) ;
#43 =( CONVERSION_BASED_UNIT ( 'INCH', #60 ) LENGTH_UNIT ( ) NAMED_UNIT ( #132 ) );
#44 = DIRECTION ( 'NONE',  ( 0.000000000000000000, 1.000000000000000000, 0.000000000000000000 ) ) ;
#45 = CARTESIAN_POINT ( 'NONE',  ( 0.000000000000000000, -0.005905511811023621965, 0.000000000000000000 ) ) ;
#46 = CIRCLE ( 'NONE', #148, 0.1875000000000000278 ) ;
#47 = DIRECTION ( 'NONE',  ( 0.000000000000000000, 0.000000000000000000, 1.000000000000000000 ) ) ;
#48 = FILL_AREA_STYLE_COLOUR ( '', #37 ) ;
#49 = CYLINDRICAL_SURFACE ( 'NONE', #127, 0.1250000000000000000 ) ;
#50 = ORIENTED_EDGE ( 'NONE', *, *, #14, .F. ) ;
#51 = CARTESIAN_POINT ( 'NONE',  ( 0.000000000000000000, 0.005905511811023621965, 0.000000000000000000 ) ) ;
#52 = AXIS2_PLACEMENT_3D ( 'NONE', #81, #183, #196 ) ;
#53 = MANIFOLD_SOLID_BREP ( 'Boss-Extrude1', #114 ) ;
#54 = CARTESIAN_POINT ( 'NONE',  ( 0.000000000000000000, 0.005905511811023621965, 0.000000000000000000 ) ) ;
#55 = EDGE_LOOP ( 'NONE', ( #200, #172 ) ) ;
#56 = UNCERTAINTY_MEASURE_WITH_UNIT (LENGTH_MEASURE( 1.000000000000000082E-05 ), #10, 'distance_accuracy_value', 'NONE');
#57 = CARTESIAN_POINT ( 'NONE',  ( 0.000000000000000000, -0.005905511811023621965, 0.000000000000000000 ) ) ;
#58 = PRODUCT_DEFINITION_SHAPE ( 'NONE', 'NONE',  #155 ) ;
#59 = CARTESIAN_POINT ( 'NONE',  ( 0.000000000000000000, 0.005905511811023621965, 0.000000000000000000 ) ) ;
#60 = LENGTH_MEASURE_WITH_UNIT ( LENGTH_MEASURE( 0.02539999999999999897 ), #221 );
#61 =( GEOMETRIC_REPRESENTATION_CONTEXT ( 3 ) GLOBAL_UNCERTAINTY_ASSIGNED_CONTEXT ( ( #206 ) ) GLOBAL_UNIT_ASSIGNED_CONTEXT ( ( #137, #135, #15 ) ) REPRESENTATION_CONTEXT ( 'NONE', 'WORKASPACE' ) );
#62 = DIRECTION ( 'NONE',  ( 0.000000000000000000, 1.000000000000000000, 0.000000000000000000 ) ) ;
#63 =( NAMED_UNIT ( * ) PLANE_ANGLE_UNIT ( ) SI_UNIT ( $, .RADIAN. ) );
#64 = DIMENSIONAL_EXPONENTS ( 1.000000000000000000, 0.000000000000000000, 0.000000000000000000, 0.000000000000000000, 0.000000000000000000, 0.000000000000000000, 0.000000000000000000 ) ;
#65 = ADVANCED_FACE ( 'NONE', ( #130, #194 ), #76, .F. ) ;
#66 = DIRECTION ( 'NONE',  ( -0.000000000000000000, -1.000000000000000000, -0.000000000000000000 ) ) ;
#67 = CARTESIAN_POINT ( 'NONE',  ( 0.000000000000000000, 0.005905511811023621965, -0.1875000000000000278 ) ) ;
#68 = EDGE_LOOP ( 'NONE', ( #89, #185 ) ) ;
#69 = DIRECTION ( 'NONE',  ( 0.000000000000000000, 1.000000000000000000, 0.000000000000000000 ) ) ;
#70 = PRODUCT_RELATED_PRODUCT_CATEGORY ( 'part', '', ( #201 ) ) ;
#71 = AXIS2_PLACEMENT_3D ( 'NONE', #59, #62, #141 ) ;
#72 = ORIENTED_EDGE ( 'NONE', *, *, #35, .T. ) ;
#73 = DIRECTION ( 'NONE',  ( 0.000000000000000000, 0.000000000000000000, -1.000000000000000000 ) ) ;
#74 = DIRECTION ( 'NONE',  ( -0.000000000000000000, -1.000000000000000000, -0.000000000000000000 ) ) ;
#75 = VERTEX_POINT ( 'NONE', #147 ) ;
#76 = PLANE ( 'NONE',  #21 ) ;
#77 = ORIENTED_EDGE ( 'NONE', *, *, #14, .T. ) ;
#78 = EDGE_LOOP ( 'NONE', ( #138, #72, #198, #165 ) ) ;
#79 = EDGE_CURVE ( 'NONE', #142, #160, #173, .T. ) ;
#80 = ORIENTED_EDGE ( 'NONE', *, *, #101, .F. ) ;
#81 = CARTESIAN_POINT ( 'NONE',  ( 0.000000000000000000, 0.005905511811023621965, 0.000000000000000000 ) ) ;
#82 = ORIENTED_EDGE ( 'NONE', *, *, #110, .F. ) ;
#83 = CARTESIAN_POINT ( 'NONE',  ( 0.000000000000000000, 0.005905511811023621965, -0.1250000000000000000 ) ) ;
#84 = FACE_OUTER_BOUND ( 'NONE', #55, .T. ) ;
#85 = PLANE ( 'NONE',  #153 ) ;
#86 = VERTEX_POINT ( 'NONE', #24 ) ;
#87 = VERTEX_POINT ( 'NONE', #179 ) ;
#88 = VERTEX_POINT ( 'NONE', #83 ) ;
#89 = ORIENTED_EDGE ( 'NONE', *, *, #126, .F. ) ;
#90 = AXIS2_PLACEMENT_3D ( 'NONE', #18, #203, #189 ) ;
#91 = CYLINDRICAL_SURFACE ( 'NONE', #164, 0.1250000000000000000 ) ;
#92 = DIMENSIONAL_EXPONENTS ( 1.000000000000000000, 0.000000000000000000, 0.000000000000000000, 0.000000000000000000, 0.000000000000000000, 0.000000000000000000, 0.000000000000000000 ) ;
#93 = CARTESIAN_POINT ( 'NONE',  ( 0.000000000000000000, -0.005905511811023621965, 0.000000000000000000 ) ) ;
#94 = ORIENTED_EDGE ( 'NONE', *, *, #215, .T. ) ;
#95 = FACE_BOUND ( 'NONE', #188, .T. ) ;
#96 = DIRECTION ( 'NONE',  ( 0.000000000000000000, 0.000000000000000000, -1.000000000000000000 ) ) ;
#97 = EDGE_CURVE ( 'NONE', #75, #123, #108, .T. ) ;
#98 = ORIENTED_EDGE ( 'NONE', *, *, #175, .F. ) ;
#99 = LENGTH_MEASURE_WITH_UNIT ( LENGTH_MEASURE( 0.02539999999999999897 ), #154 );
#100 = COLOUR_RGB ( '',0.8666666666666666963, 0.9098039215686274384, 1.000000000000000000 ) ;
#101 = EDGE_CURVE ( 'NONE', #88, #86, #4, .T. ) ;
#102 = ORIENTED_EDGE ( 'NONE', *, *, #35, .F. ) ;
#103 = APPLICATION_PROTOCOL_DEFINITION ( 'draft international standard', 'automotive_design', 1998, #199 ) ;
#104 = SURFACE_STYLE_USAGE ( .BOTH. , #40 ) ;
#105 = CIRCLE ( 'NONE', #25, 0.1250000000000000000 ) ;
#106 = PRODUCT_CONTEXT ( 'NONE', #116, 'mechanical' ) ;
#107 = DIRECTION ( 'NONE',  ( 0.000000000000000000, 0.000000000000000000, 1.000000000000000000 ) ) ;
#108 = LINE ( 'NONE', #223, #30 ) ;
#109 = AXIS2_PLACEMENT_3D ( 'NONE', #45, #44, #107 ) ;
#110 = EDGE_CURVE ( 'NONE', #160, #142, #134, .T. ) ;
#111 = CARTESIAN_POINT ( 'NONE',  ( 0.000000000000000000, -0.005905511811023621965, -0.1875000000000000278 ) ) ;
#112 =( NAMED_UNIT ( * ) SI_UNIT ( $, .STERADIAN. ) SOLID_ANGLE_UNIT ( ) );
#113 = EDGE_CURVE ( 'NONE', #88, #75, #143, .T. ) ;
#114 = CLOSED_SHELL ( 'NONE', ( #145, #178, #191, #65, #39, #205 ) ) ;
#115 =( NAMED_UNIT ( * ) SI_UNIT ( $, .STERADIAN. ) SOLID_ANGLE_UNIT ( ) );
#116 = APPLICATION_CONTEXT ( 'automotive_design' ) ;
#117 = ORIENTED_EDGE ( 'NONE', *, *, #126, .T. ) ;
#118 = DIRECTION ( 'NONE',  ( -0.000000000000000000, -1.000000000000000000, -0.000000000000000000 ) ) ;
#119 = VERTEX_POINT ( 'NONE', #111 ) ;
#120 = SURFACE_STYLE_FILL_AREA ( #133 ) ;
#121 = DIRECTION ( 'NONE',  ( 0.000000000000000000, -0.000000000000000000, 1.000000000000000000 ) ) ;
#122 = CIRCLE ( 'NONE', #109, 0.1875000000000000278 ) ;
#123 = VERTEX_POINT ( 'NONE', #193 ) ;
#124 = DIRECTION ( 'NONE',  ( 0.000000000000000000, 0.000000000000000000, 1.000000000000000000 ) ) ;
#125 = SURFACE_STYLE_FILL_AREA ( #217 ) ;
#126 = EDGE_CURVE ( 'NONE', #119, #87, #122, .T. ) ;
#127 = AXIS2_PLACEMENT_3D ( 'NONE', #51, #32, #96 ) ;
#128 = DIRECTION ( 'NONE',  ( 0.000000000000000000, 1.000000000000000000, 0.000000000000000000 ) ) ;
#129 = ADVANCED_BREP_SHAPE_REPRESENTATION ( 'WCP-0039', ( #53, #131 ), #156 ) ;
#130 = FACE_OUTER_BOUND ( 'NONE', #68, .T. ) ;
#131 = AXIS2_PLACEMENT_3D ( 'NONE', #192, #124, #140 ) ;
#132 = DIMENSIONAL_EXPONENTS ( 1.000000000000000000, 0.000000000000000000, 0.000000000000000000, 0.000000000000000000, 0.000000000000000000, 0.000000000000000000, 0.000000000000000000 ) ;
#133 = FILL_AREA_STYLE ('',( #48 ) ) ;
#134 = CIRCLE ( 'NONE', #42, 0.1875000000000000278 ) ;
#135 =( NAMED_UNIT ( * ) PLANE_ANGLE_UNIT ( ) SI_UNIT ( $, .RADIAN. ) );
#136 = DIRECTION ( 'NONE',  ( -0.000000000000000000, -1.000000000000000000, -0.000000000000000000 ) ) ;
#137 =( CONVERSION_BASED_UNIT ( 'INCH', #171 ) LENGTH_UNIT ( ) NAMED_UNIT ( #64 ) );
#138 = ORIENTED_EDGE ( 'NONE', *, *, #97, .F. ) ;
#139 = SURFACE_STYLE_USAGE ( .BOTH. , #170 ) ;
#140 = DIRECTION ( 'NONE',  ( 1.000000000000000000, 0.000000000000000000, 0.000000000000000000 ) ) ;
#141 = DIRECTION ( 'NONE',  ( 0.000000000000000000, 0.000000000000000000, 1.000000000000000000 ) ) ;
#142 = VERTEX_POINT ( 'NONE', #67 ) ;
#143 = CIRCLE ( 'NONE', #218, 0.1250000000000000000 ) ;
#144 = CIRCLE ( 'NONE', #158, 0.1250000000000000000 ) ;
#145 = ADVANCED_FACE ( 'NONE', ( #20 ), #91, .F. ) ;
#146 = DIRECTION ( 'NONE',  ( 0.000000000000000000, 1.000000000000000000, 0.000000000000000000 ) ) ;
#147 = CARTESIAN_POINT ( 'NONE',  ( 1.530808498934191509E-17, 0.005905511811023621965, 0.1250000000000000000 ) ) ;
#148 = AXIS2_PLACEMENT_3D ( 'NONE', #197, #5, #168 ) ;
#149 = ORIENTED_EDGE ( 'NONE', *, *, #97, .T. ) ;
#150 = DIRECTION ( 'NONE',  ( -0.000000000000000000, -1.000000000000000000, -0.000000000000000000 ) ) ;
#151 = CARTESIAN_POINT ( 'NONE',  ( 0.000000000000000000, 0.005905511811023621965, 0.000000000000000000 ) ) ;
#152 = DIRECTION ( 'NONE',  ( 0.000000000000000000, 1.000000000000000000, 0.000000000000000000 ) ) ;
#153 = AXIS2_PLACEMENT_3D ( 'NONE', #166, #152, #121 ) ;
#154 =( LENGTH_UNIT ( ) NAMED_UNIT ( * ) SI_UNIT ( $, .METRE. ) );
#155 = PRODUCT_DEFINITION ( 'UNKNOWN', '', #186, #17 ) ;
#156 =( GEOMETRIC_REPRESENTATION_CONTEXT ( 3 ) GLOBAL_UNCERTAINTY_ASSIGNED_CONTEXT ( ( #56 ) ) GLOBAL_UNIT_ASSIGNED_CONTEXT ( ( #10, #12, #115 ) ) REPRESENTATION_CONTEXT ( 'NONE', 'WORKASPACE' ) );
#157 = CYLINDRICAL_SURFACE ( 'NONE', #213, 0.1875000000000000278 ) ;
#158 = AXIS2_PLACEMENT_3D ( 'NONE', #57, #128, #174 ) ;
#159 = STYLED_ITEM ( 'NONE', ( #27 ), #129 ) ;
#160 = VERTEX_POINT ( 'NONE', #23 ) ;
#161 = FACE_OUTER_BOUND ( 'NONE', #36, .T. ) ;
#162 = PRESENTATION_STYLE_ASSIGNMENT (( #104 ) ) ;
#163 = DIRECTION ( 'NONE',  ( 0.000000000000000000, 1.000000000000000000, 0.000000000000000000 ) ) ;
#164 = AXIS2_PLACEMENT_3D ( 'NONE', #181, #180, #207 ) ;
#165 = ORIENTED_EDGE ( 'NONE', *, *, #29, .F. ) ;
#166 = CARTESIAN_POINT ( 'NONE',  ( 0.000000000000000000, 0.005905511811023621965, 0.000000000000000000 ) ) ;
#167 = ORIENTED_EDGE ( 'NONE', *, *, #113, .F. ) ;
#168 = DIRECTION ( 'NONE',  ( 0.000000000000000000, 0.000000000000000000, 1.000000000000000000 ) ) ;
#169 = VECTOR ( 'NONE', #136, 39.37007874015748143 ) ;
#170 = SURFACE_SIDE_STYLE ('',( #120 ) ) ;
#171 = LENGTH_MEASURE_WITH_UNIT ( LENGTH_MEASURE( 0.02539999999999999897 ), #212 );
#172 = ORIENTED_EDGE ( 'NONE', *, *, #110, .T. ) ;
#173 = CIRCLE ( 'NONE', #52, 0.1875000000000000278 ) ;
#174 = DIRECTION ( 'NONE',  ( 0.000000000000000000, 0.000000000000000000, 1.000000000000000000 ) ) ;
#175 = EDGE_CURVE ( 'NONE', #160, #87, #187, .T. ) ;
#176 = ORIENTED_EDGE ( 'NONE', *, *, #220, .T. ) ;
#177 = VECTOR ( 'NONE', #66, 39.37007874015748143 ) ;
#178 = ADVANCED_FACE ( 'NONE', ( #214 ), #157, .T. ) ;
#179 = CARTESIAN_POINT ( 'NONE',  ( 2.296212748401287726E-17, -0.005905511811023621965, 0.1875000000000000278 ) ) ;
#180 = DIRECTION ( 'NONE',  ( -0.000000000000000000, -1.000000000000000000, -0.000000000000000000 ) ) ;
#181 = CARTESIAN_POINT ( 'NONE',  ( 0.000000000000000000, 0.005905511811023621965, 0.000000000000000000 ) ) ;
#182 = UNCERTAINTY_MEASURE_WITH_UNIT (LENGTH_MEASURE( 1.000000000000000082E-05 ), #43, 'distance_accuracy_value', 'NONE');
#183 = DIRECTION ( 'NONE',  ( 0.000000000000000000, 1.000000000000000000, 0.000000000000000000 ) ) ;
#184 = CIRCLE ( 'NONE', #71, 0.1250000000000000000 ) ;
#185 = ORIENTED_EDGE ( 'NONE', *, *, #215, .F. ) ;
#186 = PRODUCT_DEFINITION_FORMATION_WITH_SPECIFIED_SOURCE ( 'ANY', '', #201, .NOT_KNOWN. ) ;
#187 = LINE ( 'NONE', #211, #169 ) ;
#188 = EDGE_LOOP ( 'NONE', ( #167, #102 ) ) ;
#189 = DIRECTION ( 'NONE',  ( 0.000000000000000000, 0.000000000000000000, -1.000000000000000000 ) ) ;
#190 =( GEOMETRIC_REPRESENTATION_CONTEXT ( 3 ) GLOBAL_UNCERTAINTY_ASSIGNED_CONTEXT ( ( #182 ) ) GLOBAL_UNIT_ASSIGNED_CONTEXT ( ( #43, #63, #112 ) ) REPRESENTATION_CONTEXT ( 'NONE', 'WORKASPACE' ) );
#191 = ADVANCED_FACE ( 'NONE', ( #84, #95 ), #85, .T. ) ;
#192 = CARTESIAN_POINT ( 'NONE',  ( 0.000000000000000000, 0.000000000000000000, 0.000000000000000000 ) ) ;
#193 = CARTESIAN_POINT ( 'NONE',  ( 1.530808498934191509E-17, -0.005905511811023621965, 0.1250000000000000000 ) ) ;
#194 = FACE_BOUND ( 'NONE', #3, .T. ) ;
#195 = MECHANICAL_DESIGN_GEOMETRIC_PRESENTATION_REPRESENTATION (  '', ( #2 ), #190 ) ;
#196 = DIRECTION ( 'NONE',  ( 0.000000000000000000, 0.000000000000000000, 1.000000000000000000 ) ) ;
#197 = CARTESIAN_POINT ( 'NONE',  ( 0.000000000000000000, -0.005905511811023621965, 0.000000000000000000 ) ) ;
#198 = ORIENTED_EDGE ( 'NONE', *, *, #101, .T. ) ;
#199 = APPLICATION_CONTEXT ( 'automotive_design' ) ;
#200 = ORIENTED_EDGE ( 'NONE', *, *, #79, .T. ) ;
#201 = PRODUCT ( 'WCP-0039', 'WCP-0039', '', ( #106 ) ) ;
#202 = PRESENTATION_LAYER_ASSIGNMENT (  '', '', ( #159 ) ) ;
#203 = DIRECTION ( 'NONE',  ( -0.000000000000000000, -1.000000000000000000, -0.000000000000000000 ) ) ;
#204 = CARTESIAN_POINT ( 'NONE',  ( 0.000000000000000000, -0.005905511811023621965, 0.000000000000000000 ) ) ;
#205 = ADVANCED_FACE ( 'NONE', ( #28 ), #49, .F. ) ;
#206 = UNCERTAINTY_MEASURE_WITH_UNIT (LENGTH_MEASURE( 1.000000000000000082E-05 ), #137, 'distance_accuracy_value', 'NONE');
#207 = DIRECTION ( 'NONE',  ( 0.000000000000000000, 0.000000000000000000, -1.000000000000000000 ) ) ;
#208 = CARTESIAN_POINT ( 'NONE',  ( 0.000000000000000000, 0.005905511811023621965, -0.1250000000000000000 ) ) ;
#209 = DIRECTION ( 'NONE',  ( 0.000000000000000000, 0.000000000000000000, 1.000000000000000000 ) ) ;
#210 = ORIENTED_EDGE ( 'NONE', *, *, #79, .F. ) ;
#211 = CARTESIAN_POINT ( 'NONE',  ( 2.296212748401287726E-17, 0.005905511811023621965, 0.1875000000000000278 ) ) ;
#212 =( LENGTH_UNIT ( ) NAMED_UNIT ( * ) SI_UNIT ( $, .METRE. ) );
#213 = AXIS2_PLACEMENT_3D ( 'NONE', #54, #74, #73 ) ;
#214 = FACE_OUTER_BOUND ( 'NONE', #26, .T. ) ;
#215 = EDGE_CURVE ( 'NONE', #87, #119, #46, .T. ) ;
#216 = ORIENTED_EDGE ( 'NONE', *, *, #29, .T. ) ;
#217 = FILL_AREA_STYLE ('',( #16 ) ) ;
#218 = AXIS2_PLACEMENT_3D ( 'NONE', #222, #146, #47 ) ;
#219 = SHAPE_DEFINITION_REPRESENTATION ( #58, #129 ) ;
#220 = EDGE_CURVE ( 'NONE', #142, #119, #34, .T. ) ;
#221 =( LENGTH_UNIT ( ) NAMED_UNIT ( * ) SI_UNIT ( $, .METRE. ) );
#222 = CARTESIAN_POINT ( 'NONE',  ( 0.000000000000000000, 0.005905511811023621965, 0.000000000000000000 ) ) ;
#223 = CARTESIAN_POINT ( 'NONE',  ( 1.530808498934191509E-17, 0.005905511811023621965, 0.1250000000000000000 ) ) ;
ENDSEC;
END-ISO-10303-21;
