ISO-10303-21;
HEADER;
FILE_DESCRIPTION (( 'STEP AP214' ),
    '1' );
FILE_NAME ('WCP-0035 Rev1.STEP',
    '2019-12-22T04:16:10',
    ( '' ),
    ( '' ),
    'SwSTEP 2.0',
    'SolidWorks 2018',
    '' );
FILE_SCHEMA (( 'AUTOMOTIVE_DESIGN' ));
ENDSEC;

DATA;
#1 = CARTESIAN_POINT ( 'NONE',  ( 1.446433227339393765E-17, 0.04921259842519685318, 0.1181102362204724671 ) ) ;
#2 = DIRECTION ( 'NONE',  ( 0.0000000000000000000, -0.0000000000000000000, 1.000000000000000000 ) ) ;
#3 = CARTESIAN_POINT ( 'NONE',  ( 0.0000000000000000000, 0.04921259842519685318, 0.0000000000000000000 ) ) ;
#4 = VERTEX_POINT ( 'NONE', #248 ) ;
#5 = DIRECTION ( 'NONE',  ( -0.0000000000000000000, -1.000000000000000000, -0.0000000000000000000 ) ) ;
#6 = VECTOR ( 'NONE', #180, 39.37007874015748143 ) ;
#7 = CARTESIAN_POINT ( 'NONE',  ( 0.0000000000000000000, 0.03921259842519685124, 0.1081102362204724721 ) ) ;
#8 = DIRECTION ( 'NONE',  ( 0.0000000000000000000, 1.000000000000000000, 0.0000000000000000000 ) ) ;
#9 = DIMENSIONAL_EXPONENTS ( 1.000000000000000000, 0.0000000000000000000, 0.0000000000000000000, 0.0000000000000000000, 0.0000000000000000000, 0.0000000000000000000, 0.0000000000000000000 ) ;
#10 = VERTEX_POINT ( 'NONE', #177 ) ;
#11 = DIMENSIONAL_EXPONENTS ( 1.000000000000000000, 0.0000000000000000000, 0.0000000000000000000, 0.0000000000000000000, 0.0000000000000000000, 0.0000000000000000000, 0.0000000000000000000 ) ;
#12 = ORIENTED_EDGE ( 'NONE', *, *, #16, .F. ) ;
#13 = AXIS2_PLACEMENT_3D ( 'NONE', #221, #200, #83 ) ;
#14 = ORIENTED_EDGE ( 'NONE', *, *, #32, .T. ) ;
#15 = DIRECTION ( 'NONE',  ( 0.0000000000000000000, 0.0000000000000000000, 1.000000000000000000 ) ) ;
#16 = EDGE_CURVE ( 'NONE', #220, #4, #233, .T. ) ;
#17 = LENGTH_MEASURE_WITH_UNIT ( LENGTH_MEASURE( 0.02539999999999999897 ), #24 );
#18 = ORIENTED_EDGE ( 'NONE', *, *, #109, .F. ) ;
#19 = PLANE ( 'NONE',  #137 ) ;
#20 = CARTESIAN_POINT ( 'NONE',  ( 1.385200887382026241E-17, -0.04921259842519685318, -0.1081102362204724721 ) ) ;
#21 = CARTESIAN_POINT ( 'NONE',  ( 0.0000000000000000000, 0.03921259842519685124, 0.0000000000000000000 ) ) ;
#22 = CARTESIAN_POINT ( 'NONE',  ( 0.0000000000000000000, -0.04921259842519685318, 0.0000000000000000000 ) ) ;
#23 = ORIENTED_EDGE ( 'NONE', *, *, #156, .F. ) ;
#24 =( LENGTH_UNIT ( ) NAMED_UNIT ( * ) SI_UNIT ( $, .METRE. ) );
#25 = CARTESIAN_POINT ( 'NONE',  ( 0.0000000000000000000, -0.03921259842519683736, -0.1181102362204724671 ) ) ;
#26 = DIRECTION ( 'NONE',  ( 0.0000000000000000000, 1.000000000000000000, 0.0000000000000000000 ) ) ;
#27 = APPLICATION_PROTOCOL_DEFINITION ( 'draft international standard', 'automotive_design', 1998, #167 ) ;
#28 = ORIENTED_EDGE ( 'NONE', *, *, #150, .F. ) ;
#29 = ADVANCED_FACE ( 'NONE', ( #120 ), #125, .T. ) ;
#30 = ORIENTED_EDGE ( 'NONE', *, *, #91, .F. ) ;
#31 = DIMENSIONAL_EXPONENTS ( 1.000000000000000000, 0.0000000000000000000, 0.0000000000000000000, 0.0000000000000000000, 0.0000000000000000000, 0.0000000000000000000, 0.0000000000000000000 ) ;
#32 = EDGE_CURVE ( 'NONE', #122, #4, #153, .T. ) ;
#33 = SURFACE_STYLE_FILL_AREA ( #151 ) ;
#34 = ORIENTED_EDGE ( 'NONE', *, *, #245, .F. ) ;
#35 = PRODUCT_DEFINITION_FORMATION_WITH_SPECIFIED_SOURCE ( 'ANY', '', #189, .NOT_KNOWN. ) ;
#36 = CIRCLE ( 'NONE', #130, 0.1081102362204724721 ) ;
#37 = CARTESIAN_POINT ( 'NONE',  ( 0.0000000000000000000, -0.03921259842519683736, 0.1081102362204724721 ) ) ;
#38 = CARTESIAN_POINT ( 'NONE',  ( 0.0000000000000000000, -0.03921259842519683736, 0.0000000000000000000 ) ) ;
#39 = DIRECTION ( 'NONE',  ( -0.0000000000000000000, -1.000000000000000000, -0.0000000000000000000 ) ) ;
#40 =( GEOMETRIC_REPRESENTATION_CONTEXT ( 3 ) GLOBAL_UNCERTAINTY_ASSIGNED_CONTEXT ( ( #182 ) ) GLOBAL_UNIT_ASSIGNED_CONTEXT ( ( #204, #84, #238 ) ) REPRESENTATION_CONTEXT ( 'NONE', 'WORKASPACE' ) );
#41 = CARTESIAN_POINT ( 'NONE',  ( 0.0000000000000000000, -0.03921259842519683736, 0.0000000000000000000 ) ) ;
#42 = DIRECTION ( 'NONE',  ( 0.0000000000000000000, 0.0000000000000000000, 1.000000000000000000 ) ) ;
#43 = EDGE_CURVE ( 'NONE', #225, #10, #131, .T. ) ;
#44 = EDGE_LOOP ( 'NONE', ( #28, #143, #192, #90 ) ) ;
#45 = CARTESIAN_POINT ( 'NONE',  ( 0.0000000000000000000, 0.0000000000000000000, 0.0000000000000000000 ) ) ;
#46 = FILL_AREA_STYLE_COLOUR ( '', #166 ) ;
#47 = AXIS2_PLACEMENT_3D ( 'NONE', #199, #236, #42 ) ;
#48 = FILL_AREA_STYLE_COLOUR ( '', #219 ) ;
#49 = CARTESIAN_POINT ( 'NONE',  ( 0.0000000000000000000, -0.04921259842519685318, 0.0000000000000000000 ) ) ;
#50 = AXIS2_PLACEMENT_3D ( 'NONE', #96, #158, #251 ) ;
#51 = FILL_AREA_STYLE ('',( #48 ) ) ;
#52 = PRODUCT_CONTEXT ( 'NONE', #167, 'mechanical' ) ;
#53 = ORIENTED_EDGE ( 'NONE', *, *, #43, .F. ) ;
#54 =( GEOMETRIC_REPRESENTATION_CONTEXT ( 3 ) GLOBAL_UNCERTAINTY_ASSIGNED_CONTEXT ( ( #213 ) ) GLOBAL_UNIT_ASSIGNED_CONTEXT ( ( #165, #111, #88 ) ) REPRESENTATION_CONTEXT ( 'NONE', 'WORKASPACE' ) );
#55 = APPLICATION_PROTOCOL_DEFINITION ( 'draft international standard', 'automotive_design', 1998, #191 ) ;
#56 = ADVANCED_FACE ( 'NONE', ( #244 ), #85, .T. ) ;
#57 = FACE_OUTER_BOUND ( 'NONE', #157, .T. ) ;
#58 = AXIS2_PLACEMENT_3D ( 'NONE', #21, #235, #99 ) ;
#59 = DIRECTION ( 'NONE',  ( -0.0000000000000000000, -1.000000000000000000, -0.0000000000000000000 ) ) ;
#60 = ORIENTED_EDGE ( 'NONE', *, *, #197, .F. ) ;
#61 = DIRECTION ( 'NONE',  ( 0.0000000000000000000, 1.000000000000000000, 0.0000000000000000000 ) ) ;
#62 = PRODUCT_DEFINITION ( 'UNKNOWN', '', #35, #140 ) ;
#63 = DIRECTION ( 'NONE',  ( 0.0000000000000000000, 1.000000000000000000, 0.0000000000000000000 ) ) ;
#64 = CARTESIAN_POINT ( 'NONE',  ( 0.0000000000000000000, -0.04921259842519685318, 0.0000000000000000000 ) ) ;
#65 = DIRECTION ( 'NONE',  ( 0.0000000000000000000, 1.000000000000000000, 0.0000000000000000000 ) ) ;
#66 = ORIENTED_EDGE ( 'NONE', *, *, #156, .T. ) ;
#67 = CARTESIAN_POINT ( 'NONE',  ( 0.0000000000000000000, 0.04921259842519685318, 0.1081102362204724721 ) ) ;
#68 = ORIENTED_EDGE ( 'NONE', *, *, #32, .F. ) ;
#69 = DIRECTION ( 'NONE',  ( 0.0000000000000000000, 0.0000000000000000000, 1.000000000000000000 ) ) ;
#70 = EDGE_CURVE ( 'NONE', #76, #173, #36, .T. ) ;
#71 = ADVANCED_FACE ( 'NONE', ( #133 ), #242, .T. ) ;
#72 = ORIENTED_EDGE ( 'NONE', *, *, #197, .T. ) ;
#73 = ADVANCED_FACE ( 'NONE', ( #203 ), #19, .T. ) ;
#74 = CLOSED_SHELL ( 'NONE', ( #211, #56, #152, #29, #73, #231, #135, #71 ) ) ;
#75 = CIRCLE ( 'NONE', #92, 0.1181102362204724671 ) ;
#76 = VERTEX_POINT ( 'NONE', #194 ) ;
#77 = DIRECTION ( 'NONE',  ( -1.000000000000000000, 0.0000000000000000000, 0.0000000000000000000 ) ) ;
#78 = EDGE_LOOP ( 'NONE', ( #72, #209 ) ) ;
#79 = DIRECTION ( 'NONE',  ( 0.0000000000000000000, 0.0000000000000000000, 1.000000000000000000 ) ) ;
#80 = ORIENTED_EDGE ( 'NONE', *, *, #134, .F. ) ;
#81 = DIRECTION ( 'NONE',  ( -0.0000000000000000000, -1.000000000000000000, -0.0000000000000000000 ) ) ;
#82 = CARTESIAN_POINT ( 'NONE',  ( 0.0000000000000000000, 0.04921259842519685318, -0.1181102362204724671 ) ) ;
#83 = DIRECTION ( 'NONE',  ( 0.0000000000000000000, 0.0000000000000000000, -1.000000000000000000 ) ) ;
#84 =( NAMED_UNIT ( * ) PLANE_ANGLE_UNIT ( ) SI_UNIT ( $, .RADIAN. ) );
#85 = TOROIDAL_SURFACE ( 'NONE', #243, 0.1081102362204724721, 0.01000000000000000021 ) ;
#86 = DIRECTION ( 'NONE',  ( 0.0000000000000000000, 0.0000000000000000000, 1.000000000000000000 ) ) ;
#87 =( NAMED_UNIT ( * ) PLANE_ANGLE_UNIT ( ) SI_UNIT ( $, .RADIAN. ) );
#88 =( NAMED_UNIT ( * ) SI_UNIT ( $, .STERADIAN. ) SOLID_ANGLE_UNIT ( ) );
#89 = ORIENTED_EDGE ( 'NONE', *, *, #150, .T. ) ;
#90 = ORIENTED_EDGE ( 'NONE', *, *, #16, .T. ) ;
#91 = EDGE_CURVE ( 'NONE', #136, #220, #103, .T. ) ;
#92 = AXIS2_PLACEMENT_3D ( 'NONE', #41, #65, #123 ) ;
#93 = DIRECTION ( 'NONE',  ( 0.0000000000000000000, 0.0000000000000000000, 1.000000000000000000 ) ) ;
#94 = FACE_OUTER_BOUND ( 'NONE', #186, .T. ) ;
#95 = EDGE_LOOP ( 'NONE', ( #18, #104, #80, #68 ) ) ;
#96 = CARTESIAN_POINT ( 'NONE',  ( 0.0000000000000000000, -0.03921259842519683736, 0.0000000000000000000 ) ) ;
#97 = CARTESIAN_POINT ( 'NONE',  ( 0.0000000000000000000, 0.03921259842519685124, 0.0000000000000000000 ) ) ;
#98 = PRESENTATION_LAYER_ASSIGNMENT (  '', '', ( #132 ) ) ;
#99 = DIRECTION ( 'NONE',  ( 0.0000000000000000000, 0.0000000000000000000, 1.000000000000000000 ) ) ;
#100 = CIRCLE ( 'NONE', #163, 0.009999999999999995004 ) ;
#101 = AXIS2_PLACEMENT_3D ( 'NONE', #37, #77, #119 ) ;
#102 = DIRECTION ( 'NONE',  ( 0.0000000000000000000, 0.0000000000000000000, 1.000000000000000000 ) ) ;
#103 = CIRCLE ( 'NONE', #202, 0.009999999999999995004 ) ;
#104 = ORIENTED_EDGE ( 'NONE', *, *, #91, .T. ) ;
#105 = DIRECTION ( 'NONE',  ( 1.000000000000000000, -0.0000000000000000000, 1.224646799147353207E-16 ) ) ;
#106 =( GEOMETRIC_REPRESENTATION_CONTEXT ( 3 ) GLOBAL_UNCERTAINTY_ASSIGNED_CONTEXT ( ( #141 ) ) GLOBAL_UNIT_ASSIGNED_CONTEXT ( ( #129, #87, #108 ) ) REPRESENTATION_CONTEXT ( 'NONE', 'WORKASPACE' ) );
#107 =( LENGTH_UNIT ( ) NAMED_UNIT ( * ) SI_UNIT ( $, .METRE. ) );
#108 =( NAMED_UNIT ( * ) SI_UNIT ( $, .STERADIAN. ) SOLID_ANGLE_UNIT ( ) );
#109 = EDGE_CURVE ( 'NONE', #136, #122, #237, .T. ) ;
#110 = FACE_OUTER_BOUND ( 'NONE', #229, .T. ) ;
#111 =( NAMED_UNIT ( * ) PLANE_ANGLE_UNIT ( ) SI_UNIT ( $, .RADIAN. ) );
#112 = DIRECTION ( 'NONE',  ( 0.0000000000000000000, 0.0000000000000000000, 1.000000000000000000 ) ) ;
#113 = CIRCLE ( 'NONE', #224, 0.1081102362204724721 ) ;
#114 = CIRCLE ( 'NONE', #118, 0.1081102362204724721 ) ;
#115 = AXIS2_PLACEMENT_3D ( 'NONE', #246, #59, #196 ) ;
#116 = PRESENTATION_STYLE_ASSIGNMENT (( #183 ) ) ;
#117 = ORIENTED_EDGE ( 'NONE', *, *, #70, .F. ) ;
#118 = AXIS2_PLACEMENT_3D ( 'NONE', #22, #124, #149 ) ;
#119 = DIRECTION ( 'NONE',  ( 0.0000000000000000000, 0.0000000000000000000, 1.000000000000000000 ) ) ;
#120 = FACE_OUTER_BOUND ( 'NONE', #44, .T. ) ;
#121 = CARTESIAN_POINT ( 'NONE',  ( 1.323968547424658562E-17, -0.03921259842519683736, -0.1081102362204724721 ) ) ;
#122 = VERTEX_POINT ( 'NONE', #217 ) ;
#123 = DIRECTION ( 'NONE',  ( 0.0000000000000000000, 0.0000000000000000000, 1.000000000000000000 ) ) ;
#124 = DIRECTION ( 'NONE',  ( -0.0000000000000000000, -1.000000000000000000, -0.0000000000000000000 ) ) ;
#125 = CYLINDRICAL_SURFACE ( 'NONE', #115, 0.1181102362204724671 ) ;
#126 = CARTESIAN_POINT ( 'NONE',  ( 1.323968547424658562E-17, 0.03921259842519685124, -0.1081102362204724721 ) ) ;
#127 = DIRECTION ( 'NONE',  ( 0.0000000000000000000, 0.0000000000000000000, 1.000000000000000000 ) ) ;
#128 =( LENGTH_UNIT ( ) NAMED_UNIT ( * ) SI_UNIT ( $, .METRE. ) );
#129 =( CONVERSION_BASED_UNIT ( 'INCH', #178 ) LENGTH_UNIT ( ) NAMED_UNIT ( #11 ) );
#130 = AXIS2_PLACEMENT_3D ( 'NONE', #3, #63, #15 ) ;
#131 = CIRCLE ( 'NONE', #218, 0.1181102362204724671 ) ;
#132 = STYLED_ITEM ( 'NONE', ( #247 ), #252 ) ;
#133 = FACE_OUTER_BOUND ( 'NONE', #179, .T. ) ;
#134 = EDGE_CURVE ( 'NONE', #4, #220, #75, .T. ) ;
#135 = ADVANCED_FACE ( 'NONE', ( #57 ), #206, .T. ) ;
#136 = VERTEX_POINT ( 'NONE', #20 ) ;
#137 = AXIS2_PLACEMENT_3D ( 'NONE', #161, #216, #2 ) ;
#138 = AXIS2_PLACEMENT_3D ( 'NONE', #64, #146, #102 ) ;
#139 = ORIENTED_EDGE ( 'NONE', *, *, #245, .T. ) ;
#140 = PRODUCT_DEFINITION_CONTEXT ( 'detailed design', #191, 'design' ) ;
#141 = UNCERTAINTY_MEASURE_WITH_UNIT (LENGTH_MEASURE( 1.000000000000000082E-05 ), #129, 'distance_accuracy_value', 'NONE');
#142 = MECHANICAL_DESIGN_GEOMETRIC_PRESENTATION_REPRESENTATION (  '', ( #250 ), #40 ) ;
#143 = ORIENTED_EDGE ( 'NONE', *, *, #184, .T. ) ;
#144 = DIRECTION ( 'NONE',  ( 1.000000000000000000, -0.0000000000000000000, 1.224646799147353207E-16 ) ) ;
#145 = EDGE_CURVE ( 'NONE', #225, #220, #198, .T. ) ;
#146 = DIRECTION ( 'NONE',  ( -0.0000000000000000000, -1.000000000000000000, -0.0000000000000000000 ) ) ;
#147 = LENGTH_MEASURE_WITH_UNIT ( LENGTH_MEASURE( 0.02539999999999999897 ), #107 );
#148 = ORIENTED_EDGE ( 'NONE', *, *, #134, .T. ) ;
#149 = DIRECTION ( 'NONE',  ( 0.0000000000000000000, 0.0000000000000000000, 1.000000000000000000 ) ) ;
#150 = EDGE_CURVE ( 'NONE', #10, #4, #195, .T. ) ;
#151 = FILL_AREA_STYLE ('',( #46 ) ) ;
#152 = ADVANCED_FACE ( 'NONE', ( #94 ), #228, .T. ) ;
#153 = CIRCLE ( 'NONE', #101, 0.009999999999999995004 ) ;
#154 = PRODUCT_DEFINITION_SHAPE ( 'NONE', 'NONE',  #62 ) ;
#155 = CIRCLE ( 'NONE', #190, 0.009999999999999995004 ) ;
#156 = EDGE_CURVE ( 'NONE', #225, #76, #155, .T. ) ;
#157 = EDGE_LOOP ( 'NONE', ( #30, #34, #14, #12 ) ) ;
#158 = DIRECTION ( 'NONE',  ( 0.0000000000000000000, 1.000000000000000000, 0.0000000000000000000 ) ) ;
#159 = ADVANCED_BREP_SHAPE_REPRESENTATION ( 'WCP-0035 Rev1', ( #252, #210 ), #106 ) ;
#160 = CIRCLE ( 'NONE', #215, 0.1181102362204724671 ) ;
#161 = CARTESIAN_POINT ( 'NONE',  ( 0.0000000000000000000, 0.04921259842519685318, 0.0000000000000000000 ) ) ;
#162 = DIRECTION ( 'NONE',  ( 1.224646799147352961E-16, 0.0000000000000000000, -1.000000000000000000 ) ) ;
#163 = AXIS2_PLACEMENT_3D ( 'NONE', #7, #222, #86 ) ;
#164 = EDGE_LOOP ( 'NONE', ( #53, #66, #60, #214 ) ) ;
#165 =( CONVERSION_BASED_UNIT ( 'INCH', #17 ) LENGTH_UNIT ( ) NAMED_UNIT ( #9 ) );
#166 = COLOUR_RGB ( '',0.8666666666666666963, 0.9098039215686274384, 1.000000000000000000 ) ;
#167 = APPLICATION_CONTEXT ( 'automotive_design' ) ;
#168 = CARTESIAN_POINT ( 'NONE',  ( 0.0000000000000000000, 0.03921259842519685124, 0.0000000000000000000 ) ) ;
#169 = DIRECTION ( 'NONE',  ( 1.224646799147352961E-16, 0.0000000000000000000, -1.000000000000000000 ) ) ;
#170 = SURFACE_STYLE_FILL_AREA ( #51 ) ;
#171 = ORIENTED_EDGE ( 'NONE', *, *, #184, .F. ) ;
#172 = PRODUCT_RELATED_PRODUCT_CATEGORY ( 'part', '', ( #189 ) ) ;
#173 = VERTEX_POINT ( 'NONE', #67 ) ;
#174 = DIRECTION ( 'NONE',  ( 1.000000000000000000, 0.0000000000000000000, 0.0000000000000000000 ) ) ;
#175 = AXIS2_PLACEMENT_3D ( 'NONE', #49, #185, #207 ) ;
#176 = ORIENTED_EDGE ( 'NONE', *, *, #145, .F. ) ;
#177 = CARTESIAN_POINT ( 'NONE',  ( 1.446433227339393765E-17, 0.03921259842519685124, 0.1181102362204724671 ) ) ;
#178 = LENGTH_MEASURE_WITH_UNIT ( LENGTH_MEASURE( 0.02539999999999999897 ), #128 );
#179 = EDGE_LOOP ( 'NONE', ( #23, #171, #230, #117 ) ) ;
#180 = DIRECTION ( 'NONE',  ( -0.0000000000000000000, -1.000000000000000000, -0.0000000000000000000 ) ) ;
#181 = DIRECTION ( 'NONE',  ( 0.0000000000000000000, 0.0000000000000000000, 1.000000000000000000 ) ) ;
#182 = UNCERTAINTY_MEASURE_WITH_UNIT (LENGTH_MEASURE( 1.000000000000000082E-05 ), #204, 'distance_accuracy_value', 'NONE');
#183 = SURFACE_STYLE_USAGE ( .BOTH. , #187 ) ;
#184 = EDGE_CURVE ( 'NONE', #10, #225, #160, .T. ) ;
#185 = DIRECTION ( 'NONE',  ( 0.0000000000000000000, 1.000000000000000000, 0.0000000000000000000 ) ) ;
#186 = EDGE_LOOP ( 'NONE', ( #232, #89, #148, #176 ) ) ;
#187 = SURFACE_SIDE_STYLE ('',( #170 ) ) ;
#188 = PRESENTATION_LAYER_ASSIGNMENT (  '', '', ( #250 ) ) ;
#189 = PRODUCT ( 'WCP-0035 Rev1', 'WCP-0035 Rev1', '', ( #52 ) ) ;
#190 = AXIS2_PLACEMENT_3D ( 'NONE', #126, #105, #169 ) ;
#191 = APPLICATION_CONTEXT ( 'automotive_design' ) ;
#192 = ORIENTED_EDGE ( 'NONE', *, *, #145, .T. ) ;
#193 = EDGE_CURVE ( 'NONE', #10, #173, #100, .T. ) ;
#194 = CARTESIAN_POINT ( 'NONE',  ( 1.385200887382026241E-17, 0.04921259842519685318, -0.1081102362204724721 ) ) ;
#195 = LINE ( 'NONE', #1, #6 ) ;
#196 = DIRECTION ( 'NONE',  ( 0.0000000000000000000, 0.0000000000000000000, -1.000000000000000000 ) ) ;
#197 = EDGE_CURVE ( 'NONE', #173, #76, #113, .T. ) ;
#198 = LINE ( 'NONE', #82, #201 ) ;
#199 = CARTESIAN_POINT ( 'NONE',  ( 0.0000000000000000000, -0.03921259842519683736, 0.0000000000000000000 ) ) ;
#200 = DIRECTION ( 'NONE',  ( -0.0000000000000000000, -1.000000000000000000, -0.0000000000000000000 ) ) ;
#201 = VECTOR ( 'NONE', #81, 39.37007874015748143 ) ;
#202 = AXIS2_PLACEMENT_3D ( 'NONE', #121, #144, #162 ) ;
#203 = FACE_OUTER_BOUND ( 'NONE', #78, .T. ) ;
#204 =( CONVERSION_BASED_UNIT ( 'INCH', #147 ) LENGTH_UNIT ( ) NAMED_UNIT ( #31 ) );
#205 = CARTESIAN_POINT ( 'NONE',  ( 0.0000000000000000000, 0.04921259842519685318, 0.0000000000000000000 ) ) ;
#206 = TOROIDAL_SURFACE ( 'NONE', #47, 0.1081102362204724721, 0.01000000000000000021 ) ;
#207 = DIRECTION ( 'NONE',  ( 0.0000000000000000000, -0.0000000000000000000, 1.000000000000000000 ) ) ;
#208 = SURFACE_STYLE_USAGE ( .BOTH. , #239 ) ;
#209 = ORIENTED_EDGE ( 'NONE', *, *, #70, .T. ) ;
#210 = AXIS2_PLACEMENT_3D ( 'NONE', #45, #181, #174 ) ;
#211 = ADVANCED_FACE ( 'NONE', ( #212 ), #253, .T. ) ;
#212 = FACE_OUTER_BOUND ( 'NONE', #164, .T. ) ;
#213 = UNCERTAINTY_MEASURE_WITH_UNIT (LENGTH_MEASURE( 1.000000000000000082E-05 ), #165, 'distance_accuracy_value', 'NONE');
#214 = ORIENTED_EDGE ( 'NONE', *, *, #193, .F. ) ;
#215 = AXIS2_PLACEMENT_3D ( 'NONE', #240, #5, #112 ) ;
#216 = DIRECTION ( 'NONE',  ( 0.0000000000000000000, 1.000000000000000000, 0.0000000000000000000 ) ) ;
#217 = CARTESIAN_POINT ( 'NONE',  ( 0.0000000000000000000, -0.04921259842519685318, 0.1081102362204724721 ) ) ;
#218 = AXIS2_PLACEMENT_3D ( 'NONE', #97, #39, #93 ) ;
#219 = COLOUR_RGB ( '',0.8666666666666666963, 0.9098039215686274384, 1.000000000000000000 ) ;
#220 = VERTEX_POINT ( 'NONE', #25 ) ;
#221 = CARTESIAN_POINT ( 'NONE',  ( 0.0000000000000000000, 0.04921259842519685318, 0.0000000000000000000 ) ) ;
#222 = DIRECTION ( 'NONE',  ( -1.000000000000000000, 0.0000000000000000000, 0.0000000000000000000 ) ) ;
#223 = PLANE ( 'NONE',  #175 ) ;
#224 = AXIS2_PLACEMENT_3D ( 'NONE', #205, #26, #69 ) ;
#225 = VERTEX_POINT ( 'NONE', #226 ) ;
#226 = CARTESIAN_POINT ( 'NONE',  ( 0.0000000000000000000, 0.03921259842519685124, -0.1181102362204724671 ) ) ;
#227 = SHAPE_DEFINITION_REPRESENTATION ( #154, #159 ) ;
#228 = CYLINDRICAL_SURFACE ( 'NONE', #13, 0.1181102362204724671 ) ;
#229 = EDGE_LOOP ( 'NONE', ( #139, #249 ) ) ;
#230 = ORIENTED_EDGE ( 'NONE', *, *, #193, .T. ) ;
#231 = ADVANCED_FACE ( 'NONE', ( #110 ), #223, .F. ) ;
#232 = ORIENTED_EDGE ( 'NONE', *, *, #43, .T. ) ;
#233 = CIRCLE ( 'NONE', #50, 0.1181102362204724671 ) ;
#234 = MECHANICAL_DESIGN_GEOMETRIC_PRESENTATION_REPRESENTATION (  '', ( #132 ), #54 ) ;
#235 = DIRECTION ( 'NONE',  ( 0.0000000000000000000, 1.000000000000000000, 0.0000000000000000000 ) ) ;
#236 = DIRECTION ( 'NONE',  ( 0.0000000000000000000, 1.000000000000000000, 0.0000000000000000000 ) ) ;
#237 = CIRCLE ( 'NONE', #138, 0.1081102362204724721 ) ;
#238 =( NAMED_UNIT ( * ) SI_UNIT ( $, .STERADIAN. ) SOLID_ANGLE_UNIT ( ) );
#239 = SURFACE_SIDE_STYLE ('',( #33 ) ) ;
#240 = CARTESIAN_POINT ( 'NONE',  ( 0.0000000000000000000, 0.03921259842519685124, 0.0000000000000000000 ) ) ;
#241 = AXIS2_PLACEMENT_3D ( 'NONE', #168, #8, #127 ) ;
#242 = TOROIDAL_SURFACE ( 'NONE', #58, 0.1081102362204724721, 0.01000000000000000021 ) ;
#243 = AXIS2_PLACEMENT_3D ( 'NONE', #38, #61, #79 ) ;
#244 = FACE_OUTER_BOUND ( 'NONE', #95, .T. ) ;
#245 = EDGE_CURVE ( 'NONE', #122, #136, #114, .T. ) ;
#246 = CARTESIAN_POINT ( 'NONE',  ( 0.0000000000000000000, 0.04921259842519685318, 0.0000000000000000000 ) ) ;
#247 = PRESENTATION_STYLE_ASSIGNMENT (( #208 ) ) ;
#248 = CARTESIAN_POINT ( 'NONE',  ( 1.446433227339393765E-17, -0.03921259842519683736, 0.1181102362204724671 ) ) ;
#249 = ORIENTED_EDGE ( 'NONE', *, *, #109, .T. ) ;
#250 = STYLED_ITEM ( 'NONE', ( #116 ), #159 ) ;
#251 = DIRECTION ( 'NONE',  ( 0.0000000000000000000, 0.0000000000000000000, 1.000000000000000000 ) ) ;
#252 = MANIFOLD_SOLID_BREP ( 'Fillet1', #74 ) ;
#253 = TOROIDAL_SURFACE ( 'NONE', #241, 0.1081102362204724721, 0.01000000000000000021 ) ;
ENDSEC;
END-ISO-10303-21;
