ISO-10303-21;
HEADER;
FILE_DESCRIPTION (( 'STEP AP214' ),
    '1' );
FILE_NAME ('WCP-0030.STEP',
    '2015-01-03T07:42:09',
    ( '' ),
    ( '' ),
    'SwSTEP 2.0',
    'SolidWorks 2014',
    '' );
FILE_SCHEMA (( 'AUTOMOTIVE_DESIGN' ));
ENDSEC;

DATA;
#1 = SURFACE_SIDE_STYLE ('',( #182 ) ) ;
#2 = AXIS2_PLACEMENT_3D ( 'NONE', #111, #187, #62 ) ;
#3 = CARTESIAN_POINT ( 'NONE',  ( 0.0000000000000000000, 0.09842519685039370600, 0.0000000000000000000 ) ) ;
#4 = ORIENTED_EDGE ( 'NONE', *, *, #184, .F. ) ;
#5 = SURFACE_STYLE_USAGE ( .BOTH. , #1 ) ;
#6 = CIRCLE ( 'NONE', #2, 0.2450000000000000200 ) ;
#7 = PRODUCT_RELATED_PRODUCT_CATEGORY ( 'part', '', ( #75 ) ) ;
#8 = CARTESIAN_POINT ( 'NONE',  ( 0.0000000000000000000, 0.09842519685039370600, -0.2450000000000000200 ) ) ;
#9 = CARTESIAN_POINT ( 'NONE',  ( 0.0000000000000000000, -0.09342519685039354900, 0.0000000000000000000 ) ) ;
#10 = CIRCLE ( 'NONE', #50, 0.2500000000000000000 ) ;
#11 = ADVANCED_FACE ( 'NONE', ( #272 ), #276, .T. ) ;
#12 = CIRCLE ( 'NONE', #109, 0.2500000000000000000 ) ;
#13 = VERTEX_POINT ( 'NONE', #8 ) ;
#14 = CARTESIAN_POINT ( 'NONE',  ( 0.0000000000000000000, 0.09842519685039370600, -0.2500000000000000000 ) ) ;
#15 = DIRECTION ( 'NONE',  ( 0.0000000000000000000, 0.0000000000000000000, 1.000000000000000000 ) ) ;
#16 = DIMENSIONAL_EXPONENTS ( 1.000000000000000000, 0.0000000000000000000, 0.0000000000000000000, 0.0000000000000000000, 0.0000000000000000000, 0.0000000000000000000, 0.0000000000000000000 ) ;
#17 = DIRECTION ( 'NONE',  ( -0.0000000000000000000, 1.000000000000000000, -0.0000000000000000000 ) ) ;
#18 = ADVANCED_FACE ( 'NONE', ( #108 ), #229, .T. ) ;
#19 = ORIENTED_EDGE ( 'NONE', *, *, #36, .F. ) ;
#20 = CARTESIAN_POINT ( 'NONE',  ( 3.061616997868383000E-017, 0.09842519685039370600, 0.2500000000000000000 ) ) ;
#21 = DIRECTION ( 'NONE',  ( 0.0000000000000000000, -1.000000000000000000, 0.0000000000000000000 ) ) ;
#22 = ORIENTED_EDGE ( 'NONE', *, *, #60, .T. ) ;
#23 = EDGE_CURVE ( 'NONE', #13, #130, #306, .T. ) ;
#24 = DIRECTION ( 'NONE',  ( 0.0000000000000000000, 0.0000000000000000000, 1.000000000000000000 ) ) ;
#25 =( GEOMETRIC_REPRESENTATION_CONTEXT ( 3 ) GLOBAL_UNCERTAINTY_ASSIGNED_CONTEXT ( ( #235 ) ) GLOBAL_UNIT_ASSIGNED_CONTEXT ( ( #144, #251, #170 ) ) REPRESENTATION_CONTEXT ( 'NONE', 'WORKASPACE' ) );
#26 = LENGTH_MEASURE_WITH_UNIT ( LENGTH_MEASURE( 0.02539999999999999900 ), #298 );
#27 =( NAMED_UNIT ( * ) PLANE_ANGLE_UNIT ( ) SI_UNIT ( $, .RADIAN. ) );
#28 = ORIENTED_EDGE ( 'NONE', *, *, #304, .F. ) ;
#29 = MECHANICAL_DESIGN_GEOMETRIC_PRESENTATION_REPRESENTATION (  '', ( #78 ), #301 ) ;
#30 = FACE_OUTER_BOUND ( 'NONE', #197, .T. ) ;
#31 = EDGE_CURVE ( 'NONE', #130, #127, #172, .T. ) ;
#32 = ORIENTED_EDGE ( 'NONE', *, *, #283, .F. ) ;
#33 = DIMENSIONAL_EXPONENTS ( 1.000000000000000000, 0.0000000000000000000, 0.0000000000000000000, 0.0000000000000000000, 0.0000000000000000000, 0.0000000000000000000, 0.0000000000000000000 ) ;
#34 = CLOSED_SHELL ( 'NONE', ( #131, #11, #114, #57, #314, #134, #59, #40, #18, #259 ) ) ;
#35 = DIRECTION ( 'NONE',  ( 0.0000000000000000000, 0.0000000000000000000, -1.000000000000000000 ) ) ;
#36 = EDGE_CURVE ( 'NONE', #13, #63, #6, .T. ) ;
#37 = CARTESIAN_POINT ( 'NONE',  ( 0.0000000000000000000, 0.09842519685039370600, 0.0000000000000000000 ) ) ;
#38 = CIRCLE ( 'NONE', #203, 0.2449999999999998600 ) ;
#39 = DIRECTION ( 'NONE',  ( -0.0000000000000000000, -1.000000000000000000, -0.0000000000000000000 ) ) ;
#40 = ADVANCED_FACE ( 'NONE', ( #201 ), #200, .F. ) ;
#41 = CARTESIAN_POINT ( 'NONE',  ( 3.000384657911015500E-017, 0.09842519685039370600, 0.2450000000000000200 ) ) ;
#42 = CARTESIAN_POINT ( 'NONE',  ( 0.0000000000000000000, 0.09842519685039370600, -0.06250000000000000000 ) ) ;
#43 = ORIENTED_EDGE ( 'NONE', *, *, #184, .T. ) ;
#44 = DIRECTION ( 'NONE',  ( -0.0000000000000000000, -1.000000000000000000, -0.0000000000000000000 ) ) ;
#45 = ORIENTED_EDGE ( 'NONE', *, *, #174, .T. ) ;
#46 = CARTESIAN_POINT ( 'NONE',  ( 7.654042494670957500E-018, 0.09842519685039370600, 0.06250000000000000000 ) ) ;
#47 = VECTOR ( 'NONE', #44, 39.37007874015748100 ) ;
#48 = CARTESIAN_POINT ( 'NONE',  ( 3.031000827889698000E-017, -0.09842519685039370600, -0.2449999999999998600 ) ) ;
#49 = PRODUCT_CONTEXT ( 'NONE', #141, 'mechanical' ) ;
#50 = AXIS2_PLACEMENT_3D ( 'NONE', #233, #17, #156 ) ;
#51 = APPLICATION_CONTEXT ( 'automotive_design' ) ;
#52 = CIRCLE ( 'NONE', #123, 0.2500000000000000000 ) ;
#53 = UNCERTAINTY_MEASURE_WITH_UNIT (LENGTH_MEASURE( 1.000000000000000100E-005 ), #66, 'distance_accuracy_value', 'NONE');
#54 = EDGE_LOOP ( 'NONE', ( #116, #242 ) ) ;
#55 = EDGE_CURVE ( 'NONE', #63, #90, #204, .T. ) ;
#56 = PRODUCT_DEFINITION_FORMATION_WITH_SPECIFIED_SOURCE ( 'ANY', '', #75, .NOT_KNOWN. ) ;
#57 = ADVANCED_FACE ( 'NONE', ( #143 ), #70, .T. ) ;
#58 = EDGE_LOOP ( 'NONE', ( #43, #189 ) ) ;
#59 = ADVANCED_FACE ( 'NONE', ( #80 ), #169, .T. ) ;
#60 = EDGE_CURVE ( 'NONE', #140, #322, #138, .T. ) ;
#61 = CONICAL_SURFACE ( 'NONE', #225, 0.2450000000000000200, 0.7853981633974278500 ) ;
#62 = DIRECTION ( 'NONE',  ( 0.0000000000000000000, 0.0000000000000000000, 1.000000000000000000 ) ) ;
#63 = VERTEX_POINT ( 'NONE', #288 ) ;
#64 = DIRECTION ( 'NONE',  ( 0.0000000000000000000, 0.0000000000000000000, -1.000000000000000000 ) ) ;
#65 = AXIS2_PLACEMENT_3D ( 'NONE', #207, #208, #35 ) ;
#66 =( CONVERSION_BASED_UNIT ( 'INCH', #274 ) LENGTH_UNIT ( ) NAMED_UNIT ( #16 ) );
#67 = EDGE_LOOP ( 'NONE', ( #265, #153 ) ) ;
#68 = CARTESIAN_POINT ( 'NONE',  ( 0.0000000000000000000, -0.09842519685039370600, 0.0000000000000000000 ) ) ;
#69 = AXIS2_PLACEMENT_3D ( 'NONE', #238, #91, #275 ) ;
#70 = CYLINDRICAL_SURFACE ( 'NONE', #264, 0.2500000000000000000 ) ;
#71 = CARTESIAN_POINT ( 'NONE',  ( 0.0000000000000000000, -0.09842519685039370600, 0.0000000000000000000 ) ) ;
#72 = APPLICATION_PROTOCOL_DEFINITION ( 'draft international standard', 'automotive_design', 1998, #141 ) ;
#73 = MECHANICAL_DESIGN_GEOMETRIC_PRESENTATION_REPRESENTATION (  '', ( #277 ), #25 ) ;
#74 = ORIENTED_EDGE ( 'NONE', *, *, #228, .F. ) ;
#75 = PRODUCT ( 'WCP-0030', 'WCP-0030', '', ( #49 ) ) ;
#76 = CIRCLE ( 'NONE', #192, 0.2450000000000000200 ) ;
#77 = ORIENTED_EDGE ( 'NONE', *, *, #304, .T. ) ;
#78 = STYLED_ITEM ( 'NONE', ( #281 ), #129 ) ;
#79 = COLOUR_RGB ( '',0.5686274509803921400, 0.5490196078431373000, 0.5098039215686274200 ) ;
#80 = FACE_OUTER_BOUND ( 'NONE', #95, .T. ) ;
#81 = DIRECTION ( 'NONE',  ( -0.0000000000000000000, 1.000000000000000000, -0.0000000000000000000 ) ) ;
#82 = CARTESIAN_POINT ( 'NONE',  ( 0.0000000000000000000, 0.09842519685039370600, -0.2450000000000000200 ) ) ;
#83 =( GEOMETRIC_REPRESENTATION_CONTEXT ( 3 ) GLOBAL_UNCERTAINTY_ASSIGNED_CONTEXT ( ( #193 ) ) GLOBAL_UNIT_ASSIGNED_CONTEXT ( ( #250, #27, #122 ) ) REPRESENTATION_CONTEXT ( 'NONE', 'WORKASPACE' ) );
#84 = VECTOR ( 'NONE', #94, 39.37007874015748900 ) ;
#85 = VECTOR ( 'NONE', #107, 39.37007874015748100 ) ;
#86 = EDGE_LOOP ( 'NONE', ( #74, #4, #151, #285 ) ) ;
#87 = FILL_AREA_STYLE ('',( #263 ) ) ;
#88 =( NAMED_UNIT ( * ) SI_UNIT ( $, .STERADIAN. ) SOLID_ANGLE_UNIT ( ) );
#89 = PRESENTATION_LAYER_ASSIGNMENT (  '', '', ( #277 ) ) ;
#90 = VERTEX_POINT ( 'NONE', #313 ) ;
#91 = DIRECTION ( 'NONE',  ( 0.0000000000000000000, 1.000000000000000000, 0.0000000000000000000 ) ) ;
#92 = DIRECTION ( 'NONE',  ( -0.0000000000000000000, 1.000000000000000000, -0.0000000000000000000 ) ) ;
#93 = FACE_BOUND ( 'NONE', #67, .T. ) ;
#94 = DIRECTION ( 'NONE',  ( 0.0000000000000000000, 0.7071067811865474600, 0.7071067811865474600 ) ) ;
#95 = EDGE_LOOP ( 'NONE', ( #194, #290, #117, #45 ) ) ;
#96 = DIRECTION ( 'NONE',  ( 0.0000000000000000000, 0.0000000000000000000, 1.000000000000000000 ) ) ;
#97 = DIRECTION ( 'NONE',  ( 0.0000000000000000000, 0.0000000000000000000, -1.000000000000000000 ) ) ;
#98 = AXIS2_PLACEMENT_3D ( 'NONE', #37, #113, #289 ) ;
#99 = DIRECTION ( 'NONE',  ( 0.0000000000000000000, 0.0000000000000000000, 1.000000000000000000 ) ) ;
#100 = APPLICATION_PROTOCOL_DEFINITION ( 'draft international standard', 'automotive_design', 1998, #51 ) ;
#101 = VECTOR ( 'NONE', #213, 39.37007874015748100 ) ;
#102 = ORIENTED_EDGE ( 'NONE', *, *, #279, .T. ) ;
#103 = EDGE_CURVE ( 'NONE', #257, #127, #10, .T. ) ;
#104 = CIRCLE ( 'NONE', #270, 0.06250000000000000000 ) ;
#105 = CARTESIAN_POINT ( 'NONE',  ( 0.0000000000000000000, -0.09342519685039354900, 0.0000000000000000000 ) ) ;
#106 = LENGTH_MEASURE_WITH_UNIT ( LENGTH_MEASURE( 0.02539999999999999900 ), #196 );
#107 = DIRECTION ( 'NONE',  ( 0.0000000000000000000, -0.7071067811865620100, -0.7071067811865330300 ) ) ;
#108 = FACE_OUTER_BOUND ( 'NONE', #86, .T. ) ;
#109 = AXIS2_PLACEMENT_3D ( 'NONE', #183, #231, #137 ) ;
#110 = DIRECTION ( 'NONE',  ( -0.0000000000000000000, -1.000000000000000000, -0.0000000000000000000 ) ) ;
#111 = CARTESIAN_POINT ( 'NONE',  ( 0.0000000000000000000, 0.09842519685039370600, 0.0000000000000000000 ) ) ;
#112 = PRESENTATION_LAYER_ASSIGNMENT (  '', '', ( #78 ) ) ;
#113 = DIRECTION ( 'NONE',  ( -0.0000000000000000000, -1.000000000000000000, -0.0000000000000000000 ) ) ;
#114 = ADVANCED_FACE ( 'NONE', ( #30 ), #299, .F. ) ;
#115 = SHAPE_DEFINITION_REPRESENTATION ( #177, #221 ) ;
#116 = ORIENTED_EDGE ( 'NONE', *, *, #36, .T. ) ;
#117 = ORIENTED_EDGE ( 'NONE', *, *, #31, .T. ) ;
#118 = DIRECTION ( 'NONE',  ( -0.0000000000000000000, -1.000000000000000000, -0.0000000000000000000 ) ) ;
#119 = PLANE ( 'NONE',  #154 ) ;
#120 = DIRECTION ( 'NONE',  ( 0.0000000000000000000, 0.0000000000000000000, 1.000000000000000000 ) ) ;
#121 = EDGE_CURVE ( 'NONE', #130, #90, #12, .T. ) ;
#122 =( NAMED_UNIT ( * ) SI_UNIT ( $, .STERADIAN. ) SOLID_ANGLE_UNIT ( ) );
#123 = AXIS2_PLACEMENT_3D ( 'NONE', #165, #21, #215 ) ;
#124 = ORIENTED_EDGE ( 'NONE', *, *, #234, .F. ) ;
#125 = EDGE_LOOP ( 'NONE', ( #32, #219, #147, #124 ) ) ;
#126 = AXIS2_PLACEMENT_3D ( 'NONE', #245, #92, #96 ) ;
#127 = VERTEX_POINT ( 'NONE', #205 ) ;
#128 = DIRECTION ( 'NONE',  ( -0.0000000000000000000, 1.000000000000000000, -0.0000000000000000000 ) ) ;
#129 = MANIFOLD_SOLID_BREP ( 'Chamfer1', #34 ) ;
#130 = VERTEX_POINT ( 'NONE', #161 ) ;
#131 = ADVANCED_FACE ( 'NONE', ( #247 ), #255, .T. ) ;
#132 = LINE ( 'NONE', #20, #101 ) ;
#133 = EDGE_LOOP ( 'NONE', ( #256, #280, #311, #28 ) ) ;
#134 = ADVANCED_FACE ( 'NONE', ( #178, #297 ), #119, .F. ) ;
#135 = CARTESIAN_POINT ( 'NONE',  ( 0.0000000000000000000, 0.09842519685039370600, 0.0000000000000000000 ) ) ;
#136 = DIRECTION ( 'NONE',  ( -0.0000000000000000000, -1.000000000000000000, -0.0000000000000000000 ) ) ;
#137 = DIRECTION ( 'NONE',  ( 0.0000000000000000000, 0.0000000000000000000, 1.000000000000000000 ) ) ;
#138 = CIRCLE ( 'NONE', #217, 0.06250000000000000000 ) ;
#139 = EDGE_CURVE ( 'NONE', #63, #13, #76, .T. ) ;
#140 = VERTEX_POINT ( 'NONE', #287 ) ;
#141 = APPLICATION_CONTEXT ( 'automotive_design' ) ;
#142 = FILL_AREA_STYLE ('',( #195 ) ) ;
#143 = FACE_OUTER_BOUND ( 'NONE', #258, .T. ) ;
#144 =( CONVERSION_BASED_UNIT ( 'INCH', #106 ) LENGTH_UNIT ( ) NAMED_UNIT ( #33 ) );
#145 = CIRCLE ( 'NONE', #199, 0.2449999999999998600 ) ;
#146 = SURFACE_STYLE_FILL_AREA ( #87 ) ;
#147 = ORIENTED_EDGE ( 'NONE', *, *, #103, .F. ) ;
#148 = ORIENTED_EDGE ( 'NONE', *, *, #296, .T. ) ;
#149 = DIRECTION ( 'NONE',  ( 0.0000000000000000000, 0.0000000000000000000, 1.000000000000000000 ) ) ;
#150 = PRODUCT_DEFINITION_CONTEXT ( 'detailed design', #51, 'design' ) ;
#151 = ORIENTED_EDGE ( 'NONE', *, *, #234, .T. ) ;
#152 = LINE ( 'NONE', #210, #202 ) ;
#153 = ORIENTED_EDGE ( 'NONE', *, *, #309, .F. ) ;
#154 = AXIS2_PLACEMENT_3D ( 'NONE', #71, #246, #315 ) ;
#155 = CARTESIAN_POINT ( 'NONE',  ( 7.654042494670957500E-018, -0.09842519685039370600, 0.06250000000000000000 ) ) ;
#156 = DIRECTION ( 'NONE',  ( 0.0000000000000000000, 0.0000000000000000000, 1.000000000000000000 ) ) ;
#157 = CARTESIAN_POINT ( 'NONE',  ( 0.0000000000000000000, 0.09842519685039370600, 0.0000000000000000000 ) ) ;
#158 = VERTEX_POINT ( 'NONE', #240 ) ;
#159 = DIRECTION ( 'NONE',  ( 0.0000000000000000000, -1.000000000000000000, 0.0000000000000000000 ) ) ;
#160 = EDGE_CURVE ( 'NONE', #140, #158, #308, .T. ) ;
#161 = CARTESIAN_POINT ( 'NONE',  ( 0.0000000000000000000, 0.09342519685039352200, -0.2500000000000000000 ) ) ;
#162 = CARTESIAN_POINT ( 'NONE',  ( 3.061616997868383000E-017, -0.09342519685039354900, 0.2500000000000000000 ) ) ;
#163 = VECTOR ( 'NONE', #118, 39.37007874015748100 ) ;
#164 = VECTOR ( 'NONE', #136, 39.37007874015748100 ) ;
#165 = CARTESIAN_POINT ( 'NONE',  ( 0.0000000000000000000, 0.09342519685039352200, 0.0000000000000000000 ) ) ;
#166 = DIRECTION ( 'NONE',  ( 0.0000000000000000000, 1.000000000000000000, 0.0000000000000000000 ) ) ;
#167 = CARTESIAN_POINT ( 'NONE',  ( 0.0000000000000000000, -0.09842519685039370600, 0.0000000000000000000 ) ) ;
#168 = AXIS2_PLACEMENT_3D ( 'NONE', #312, #39, #181 ) ;
#169 = CYLINDRICAL_SURFACE ( 'NONE', #65, 0.2500000000000000000 ) ;
#170 =( NAMED_UNIT ( * ) SI_UNIT ( $, .STERADIAN. ) SOLID_ANGLE_UNIT ( ) );
#171 = AXIS2_PLACEMENT_3D ( 'NONE', #167, #166, #269 ) ;
#172 = LINE ( 'NONE', #14, #164 ) ;
#173 = ORIENTED_EDGE ( 'NONE', *, *, #23, .T. ) ;
#174 = EDGE_CURVE ( 'NONE', #127, #257, #226, .T. ) ;
#175 = AXIS2_PLACEMENT_3D ( 'NONE', #216, #99, #220 ) ;
#176 = AXIS2_PLACEMENT_3D ( 'NONE', #237, #159, #64 ) ;
#177 = PRODUCT_DEFINITION_SHAPE ( 'NONE', 'NONE',  #241 ) ;
#178 = FACE_OUTER_BOUND ( 'NONE', #58, .T. ) ;
#179 = ORIENTED_EDGE ( 'NONE', *, *, #103, .T. ) ;
#180 = ORIENTED_EDGE ( 'NONE', *, *, #121, .F. ) ;
#181 = DIRECTION ( 'NONE',  ( 0.0000000000000000000, 0.0000000000000000000, -1.000000000000000000 ) ) ;
#182 = SURFACE_STYLE_FILL_AREA ( #142 ) ;
#183 = CARTESIAN_POINT ( 'NONE',  ( 0.0000000000000000000, 0.09342519685039352200, 0.0000000000000000000 ) ) ;
#184 = EDGE_CURVE ( 'NONE', #248, #295, #38, .T. ) ;
#185 = ORIENTED_EDGE ( 'NONE', *, *, #160, .F. ) ;
#186 = SURFACE_SIDE_STYLE ('',( #146 ) ) ;
#187 = DIRECTION ( 'NONE',  ( 0.0000000000000000000, 1.000000000000000000, 0.0000000000000000000 ) ) ;
#188 = SURFACE_STYLE_USAGE ( .BOTH. , #186 ) ;
#189 = ORIENTED_EDGE ( 'NONE', *, *, #283, .T. ) ;
#190 = DIRECTION ( 'NONE',  ( 0.0000000000000000000, 1.000000000000000000, 0.0000000000000000000 ) ) ;
#191 = CARTESIAN_POINT ( 'NONE',  ( 7.654042494670957500E-018, 0.09842519685039370600, 0.06250000000000000000 ) ) ;
#192 = AXIS2_PLACEMENT_3D ( 'NONE', #273, #190, #209 ) ;
#193 = UNCERTAINTY_MEASURE_WITH_UNIT (LENGTH_MEASURE( 1.000000000000000100E-005 ), #250, 'distance_accuracy_value', 'NONE');
#194 = ORIENTED_EDGE ( 'NONE', *, *, #296, .F. ) ;
#195 = FILL_AREA_STYLE_COLOUR ( '', #321 ) ;
#196 =( LENGTH_UNIT ( ) NAMED_UNIT ( * ) SI_UNIT ( $, .METRE. ) );
#197 = EDGE_LOOP ( 'NONE', ( #22, #212, #214, #185 ) ) ;
#198 = DIRECTION ( 'NONE',  ( 0.0000000000000000000, -0.0000000000000000000, 1.000000000000000000 ) ) ;
#199 = AXIS2_PLACEMENT_3D ( 'NONE', #68, #244, #24 ) ;
#200 = CYLINDRICAL_SURFACE ( 'NONE', #168, 0.06250000000000000000 ) ;
#201 = FACE_OUTER_BOUND ( 'NONE', #133, .T. ) ;
#202 = VECTOR ( 'NONE', #319, 39.37007874015748900 ) ;
#203 = AXIS2_PLACEMENT_3D ( 'NONE', #266, #323, #120 ) ;
#204 = LINE ( 'NONE', #41, #294 ) ;
#205 = CARTESIAN_POINT ( 'NONE',  ( 0.0000000000000000000, -0.09342519685039354900, -0.2500000000000000000 ) ) ;
#206 = DIRECTION ( 'NONE',  ( 0.0000000000000000000, 0.0000000000000000000, -1.000000000000000000 ) ) ;
#207 = CARTESIAN_POINT ( 'NONE',  ( 0.0000000000000000000, 0.09842519685039370600, 0.0000000000000000000 ) ) ;
#208 = DIRECTION ( 'NONE',  ( -0.0000000000000000000, -1.000000000000000000, -0.0000000000000000000 ) ) ;
#209 = DIRECTION ( 'NONE',  ( 0.0000000000000000000, 0.0000000000000000000, 1.000000000000000000 ) ) ;
#210 = CARTESIAN_POINT ( 'NONE',  ( 3.061616997868383000E-017, -0.09342519685039354900, -0.2500000000000000000 ) ) ;
#211 = LINE ( 'NONE', #191, #163 ) ;
#212 = ORIENTED_EDGE ( 'NONE', *, *, #227, .T. ) ;
#213 = DIRECTION ( 'NONE',  ( -0.0000000000000000000, -1.000000000000000000, -0.0000000000000000000 ) ) ;
#214 = ORIENTED_EDGE ( 'NONE', *, *, #279, .F. ) ;
#215 = DIRECTION ( 'NONE',  ( 0.0000000000000000000, 0.0000000000000000000, 1.000000000000000000 ) ) ;
#216 = CARTESIAN_POINT ( 'NONE',  ( 0.0000000000000000000, 0.0000000000000000000, 0.0000000000000000000 ) ) ;
#217 = AXIS2_PLACEMENT_3D ( 'NONE', #135, #230, #15 ) ;
#218 = PRESENTATION_STYLE_ASSIGNMENT (( #5 ) ) ;
#219 = ORIENTED_EDGE ( 'NONE', *, *, #228, .T. ) ;
#220 = DIRECTION ( 'NONE',  ( 1.000000000000000000, 0.0000000000000000000, 0.0000000000000000000 ) ) ;
#221 = ADVANCED_BREP_SHAPE_REPRESENTATION ( 'WCP-0030', ( #129, #175 ), #83 ) ;
#222 = CARTESIAN_POINT ( 'NONE',  ( 0.0000000000000000000, 0.09842519685039370600, 0.0000000000000000000 ) ) ;
#223 = FACE_OUTER_BOUND ( 'NONE', #243, .T. ) ;
#224 = ORIENTED_EDGE ( 'NONE', *, *, #121, .T. ) ;
#225 = AXIS2_PLACEMENT_3D ( 'NONE', #293, #317, #97 ) ;
#226 = CIRCLE ( 'NONE', #126, 0.2500000000000000000 ) ;
#227 = EDGE_CURVE ( 'NONE', #322, #253, #211, .T. ) ;
#228 = EDGE_CURVE ( 'NONE', #295, #127, #152, .T. ) ;
#229 = CONICAL_SURFACE ( 'NONE', #267, 0.2500000000000000000, 0.7853981633974482800 ) ;
#230 = DIRECTION ( 'NONE',  ( 0.0000000000000000000, 1.000000000000000000, 0.0000000000000000000 ) ) ;
#231 = DIRECTION ( 'NONE',  ( 0.0000000000000000000, -1.000000000000000000, 0.0000000000000000000 ) ) ;
#232 = CIRCLE ( 'NONE', #69, 0.06250000000000000000 ) ;
#233 = CARTESIAN_POINT ( 'NONE',  ( 0.0000000000000000000, -0.09342519685039354900, 0.0000000000000000000 ) ) ;
#234 = EDGE_CURVE ( 'NONE', #248, #257, #303, .T. ) ;
#235 = UNCERTAINTY_MEASURE_WITH_UNIT (LENGTH_MEASURE( 1.000000000000000100E-005 ), #144, 'distance_accuracy_value', 'NONE');
#236 =( NAMED_UNIT ( * ) PLANE_ANGLE_UNIT ( ) SI_UNIT ( $, .RADIAN. ) );
#237 = CARTESIAN_POINT ( 'NONE',  ( 0.0000000000000000000, 0.09842519685039370600, 0.0000000000000000000 ) ) ;
#238 = CARTESIAN_POINT ( 'NONE',  ( 0.0000000000000000000, -0.09842519685039370600, 0.0000000000000000000 ) ) ;
#239 = FACE_OUTER_BOUND ( 'NONE', #54, .T. ) ;
#240 = CARTESIAN_POINT ( 'NONE',  ( 0.0000000000000000000, -0.09842519685039370600, -0.06250000000000000000 ) ) ;
#241 = PRODUCT_DEFINITION ( 'UNKNOWN', '', #56, #150 ) ;
#242 = ORIENTED_EDGE ( 'NONE', *, *, #139, .T. ) ;
#243 = EDGE_LOOP ( 'NONE', ( #282, #19, #173, #262 ) ) ;
#244 = DIRECTION ( 'NONE',  ( -0.0000000000000000000, -1.000000000000000000, -0.0000000000000000000 ) ) ;
#245 = CARTESIAN_POINT ( 'NONE',  ( 0.0000000000000000000, -0.09342519685039354900, 0.0000000000000000000 ) ) ;
#246 = DIRECTION ( 'NONE',  ( 0.0000000000000000000, 1.000000000000000000, 0.0000000000000000000 ) ) ;
#247 = FACE_OUTER_BOUND ( 'NONE', #316, .T. ) ;
#248 = VERTEX_POINT ( 'NONE', #320 ) ;
#249 = PLANE ( 'NONE',  #300 ) ;
#250 =( CONVERSION_BASED_UNIT ( 'INCH', #26 ) LENGTH_UNIT ( ) NAMED_UNIT ( #260 ) );
#251 =( NAMED_UNIT ( * ) PLANE_ANGLE_UNIT ( ) SI_UNIT ( $, .RADIAN. ) );
#252 = ORIENTED_EDGE ( 'NONE', *, *, #139, .F. ) ;
#253 = VERTEX_POINT ( 'NONE', #155 ) ;
#254 = DIRECTION ( 'NONE',  ( 0.0000000000000000000, 0.0000000000000000000, 1.000000000000000000 ) ) ;
#255 = CONICAL_SURFACE ( 'NONE', #176, 0.2450000000000000200, 0.7853981633974278500 ) ;
#256 = ORIENTED_EDGE ( 'NONE', *, *, #227, .F. ) ;
#257 = VERTEX_POINT ( 'NONE', #162 ) ;
#258 = EDGE_LOOP ( 'NONE', ( #224, #148, #179, #278 ) ) ;
#259 = ADVANCED_FACE ( 'NONE', ( #223 ), #61, .T. ) ;
#260 = DIMENSIONAL_EXPONENTS ( 1.000000000000000000, 0.0000000000000000000, 0.0000000000000000000, 0.0000000000000000000, 0.0000000000000000000, 0.0000000000000000000, 0.0000000000000000000 ) ;
#261 = DIRECTION ( 'NONE',  ( 8.659560562354754100E-017, -0.7071067811865620100, 0.7071067811865330300 ) ) ;
#262 = ORIENTED_EDGE ( 'NONE', *, *, #284, .F. ) ;
#263 = FILL_AREA_STYLE_COLOUR ( '', #79 ) ;
#264 = AXIS2_PLACEMENT_3D ( 'NONE', #157, #110, #206 ) ;
#265 = ORIENTED_EDGE ( 'NONE', *, *, #60, .F. ) ;
#266 = CARTESIAN_POINT ( 'NONE',  ( 0.0000000000000000000, -0.09842519685039370600, 0.0000000000000000000 ) ) ;
#267 = AXIS2_PLACEMENT_3D ( 'NONE', #9, #81, #310 ) ;
#268 = CIRCLE ( 'NONE', #171, 0.06250000000000000000 ) ;
#269 = DIRECTION ( 'NONE',  ( 0.0000000000000000000, 0.0000000000000000000, 1.000000000000000000 ) ) ;
#270 = AXIS2_PLACEMENT_3D ( 'NONE', #222, #305, #254 ) ;
#271 = EDGE_LOOP ( 'NONE', ( #102, #77 ) ) ;
#272 = FACE_OUTER_BOUND ( 'NONE', #125, .T. ) ;
#273 = CARTESIAN_POINT ( 'NONE',  ( 0.0000000000000000000, 0.09842519685039370600, 0.0000000000000000000 ) ) ;
#274 = LENGTH_MEASURE_WITH_UNIT ( LENGTH_MEASURE( 0.02539999999999999900 ), #291 );
#275 = DIRECTION ( 'NONE',  ( 0.0000000000000000000, 0.0000000000000000000, 1.000000000000000000 ) ) ;
#276 = CONICAL_SURFACE ( 'NONE', #318, 0.2500000000000000000, 0.7853981633974482800 ) ;
#277 = STYLED_ITEM ( 'NONE', ( #218 ), #221 ) ;
#278 = ORIENTED_EDGE ( 'NONE', *, *, #31, .F. ) ;
#279 = EDGE_CURVE ( 'NONE', #158, #253, #268, .T. ) ;
#280 = ORIENTED_EDGE ( 'NONE', *, *, #309, .T. ) ;
#281 = PRESENTATION_STYLE_ASSIGNMENT (( #188 ) ) ;
#282 = ORIENTED_EDGE ( 'NONE', *, *, #55, .F. ) ;
#283 = EDGE_CURVE ( 'NONE', #295, #248, #145, .T. ) ;
#284 = EDGE_CURVE ( 'NONE', #90, #130, #52, .T. ) ;
#285 = ORIENTED_EDGE ( 'NONE', *, *, #174, .F. ) ;
#286 = ORIENTED_EDGE ( 'NONE', *, *, #55, .T. ) ;
#287 = CARTESIAN_POINT ( 'NONE',  ( 0.0000000000000000000, 0.09842519685039370600, -0.06250000000000000000 ) ) ;
#288 = CARTESIAN_POINT ( 'NONE',  ( 3.031000827889699300E-017, 0.09842519685039370600, 0.2450000000000000200 ) ) ;
#289 = DIRECTION ( 'NONE',  ( 0.0000000000000000000, 0.0000000000000000000, -1.000000000000000000 ) ) ;
#290 = ORIENTED_EDGE ( 'NONE', *, *, #284, .T. ) ;
#291 =( LENGTH_UNIT ( ) NAMED_UNIT ( * ) SI_UNIT ( $, .METRE. ) );
#292 = CARTESIAN_POINT ( 'NONE',  ( 0.0000000000000000000, -0.09342519685039354900, 0.2500000000000000000 ) ) ;
#293 = CARTESIAN_POINT ( 'NONE',  ( 0.0000000000000000000, 0.09842519685039370600, 0.0000000000000000000 ) ) ;
#294 = VECTOR ( 'NONE', #261, 39.37007874015748100 ) ;
#295 = VERTEX_POINT ( 'NONE', #48 ) ;
#296 = EDGE_CURVE ( 'NONE', #90, #257, #132, .T. ) ;
#297 = FACE_BOUND ( 'NONE', #271, .T. ) ;
#298 =( LENGTH_UNIT ( ) NAMED_UNIT ( * ) SI_UNIT ( $, .METRE. ) );
#299 = CYLINDRICAL_SURFACE ( 'NONE', #98, 0.06250000000000000000 ) ;
#300 = AXIS2_PLACEMENT_3D ( 'NONE', #3, #302, #198 ) ;
#301 =( GEOMETRIC_REPRESENTATION_CONTEXT ( 3 ) GLOBAL_UNCERTAINTY_ASSIGNED_CONTEXT ( ( #53 ) ) GLOBAL_UNIT_ASSIGNED_CONTEXT ( ( #66, #236, #88 ) ) REPRESENTATION_CONTEXT ( 'NONE', 'WORKASPACE' ) );
#302 = DIRECTION ( 'NONE',  ( 0.0000000000000000000, 1.000000000000000000, 0.0000000000000000000 ) ) ;
#303 = LINE ( 'NONE', #292, #84 ) ;
#304 = EDGE_CURVE ( 'NONE', #253, #158, #232, .T. ) ;
#305 = DIRECTION ( 'NONE',  ( 0.0000000000000000000, 1.000000000000000000, 0.0000000000000000000 ) ) ;
#306 = LINE ( 'NONE', #82, #85 ) ;
#307 = ORIENTED_EDGE ( 'NONE', *, *, #23, .F. ) ;
#308 = LINE ( 'NONE', #42, #47 ) ;
#309 = EDGE_CURVE ( 'NONE', #322, #140, #104, .T. ) ;
#310 = DIRECTION ( 'NONE',  ( 0.0000000000000000000, 0.0000000000000000000, 1.000000000000000000 ) ) ;
#311 = ORIENTED_EDGE ( 'NONE', *, *, #160, .T. ) ;
#312 = CARTESIAN_POINT ( 'NONE',  ( 0.0000000000000000000, 0.09842519685039370600, 0.0000000000000000000 ) ) ;
#313 = CARTESIAN_POINT ( 'NONE',  ( 3.061616997868383000E-017, 0.09342519685039352200, 0.2500000000000000000 ) ) ;
#314 = ADVANCED_FACE ( 'NONE', ( #239, #93 ), #249, .T. ) ;
#315 = DIRECTION ( 'NONE',  ( 0.0000000000000000000, -0.0000000000000000000, 1.000000000000000000 ) ) ;
#316 = EDGE_LOOP ( 'NONE', ( #252, #286, #180, #307 ) ) ;
#317 = DIRECTION ( 'NONE',  ( 0.0000000000000000000, -1.000000000000000000, 0.0000000000000000000 ) ) ;
#318 = AXIS2_PLACEMENT_3D ( 'NONE', #105, #128, #149 ) ;
#319 = DIRECTION ( 'NONE',  ( 8.659560562354932900E-017, 0.7071067811865474600, -0.7071067811865474600 ) ) ;
#320 = CARTESIAN_POINT ( 'NONE',  ( 0.0000000000000000000, -0.09842519685039370600, 0.2449999999999998600 ) ) ;
#321 = COLOUR_RGB ( '',0.5686274509803921400, 0.5490196078431373000, 0.5098039215686274200 ) ;
#322 = VERTEX_POINT ( 'NONE', #46 ) ;
#323 = DIRECTION ( 'NONE',  ( -0.0000000000000000000, -1.000000000000000000, -0.0000000000000000000 ) ) ;
ENDSEC;
END-ISO-10303-21;
