ISO-10303-21;
HEADER;
FILE_DESCRIPTION (( 'STEP AP214' ),
    '1' );
FILE_NAME ('217-8173.step',
    '2022-11-29T01:31:00',
    ( '' ),
    ( '' ),
    'SwSTEP 2.0',
    'SolidWorks 2020',
    '' );
FILE_SCHEMA (( 'AUTOMOTIVE_DESIGN' ));
ENDSEC;

DATA;
#1 = PLANE ( 'NONE',  #21 ) ;
#2 = FACE_OUTER_BOUND ( 'NONE', #178, .T. ) ;
#3 = FACE_OUTER_BOUND ( 'NONE', #179, .T. ) ;
#4 = DIRECTION ( 'NONE',  ( -1.000000000000000000, -0.000000000000000000, 0.000000000000000000 ) ) ;
#5 = CARTESIAN_POINT ( 'NONE',  ( -0.1111399268190029627, -0.1925000000000001432, 0.01562500000000000000 ) ) ;
#6 = ADVANCED_FACE ( 'NONE', ( #350, #3 ), #89, .T. ) ;
#7 = LINE ( 'NONE', #303, #168 ) ;
#8 = DIRECTION ( 'NONE',  ( 0.000000000000000000, 0.000000000000000000, 1.000000000000000000 ) ) ;
#9 = DIRECTION ( 'NONE',  ( 0.4999999999999997224, 0.8660254037844388186, 0.000000000000000000 ) ) ;
#10 = LINE ( 'NONE', #110, #173 ) ;
#11 = DIRECTION ( 'NONE',  ( -0.4999999999999998335, 0.8660254037844385966, 0.000000000000000000 ) ) ;
#12 = PRODUCT_CONTEXT ( 'NONE', #261, 'mechanical' ) ;
#13 = EDGE_CURVE ( 'NONE', #80, #20, #292, .T. ) ;
#14 = FILL_AREA_STYLE ('',( #144 ) ) ;
#15 = FACE_OUTER_BOUND ( 'NONE', #267, .T. ) ;
#16 = AXIS2_PLACEMENT_3D ( 'NONE', #145, #342, #308 ) ;
#17 =( CONVERSION_BASED_UNIT ( 'INCH', #98 ) LENGTH_UNIT ( ) NAMED_UNIT ( #293 ) );
#18 = ADVANCED_FACE ( 'NONE', ( #212 ), #1, .T. ) ;
#19 =( NAMED_UNIT ( * ) PLANE_ANGLE_UNIT ( ) SI_UNIT ( $, .RADIAN. ) );
#20 = VERTEX_POINT ( 'NONE', #331 ) ;
#21 = AXIS2_PLACEMENT_3D ( 'NONE', #160, #112, #300 ) ;
#22 = ORIENTED_EDGE ( 'NONE', *, *, #79, .T. ) ;
#23 = VERTEX_POINT ( 'NONE', #36 ) ;
#24 = ORIENTED_EDGE ( 'NONE', *, *, #313, .T. ) ;
#25 = DIRECTION ( 'NONE',  ( -0.8660254037844383745, -0.5000000000000005551, 0.000000000000000000 ) ) ;
#26 = ORIENTED_EDGE ( 'NONE', *, *, #171, .T. ) ;
#27 = UNCERTAINTY_MEASURE_WITH_UNIT (LENGTH_MEASURE( 1.000000000000000082E-05 ), #17, 'distance_accuracy_value', 'NONE');
#28 = EDGE_LOOP ( 'NONE', ( #151, #148 ) ) ;
#29 = EDGE_CURVE ( 'NONE', #346, #283, #108, .T. ) ;
#30 = FACE_OUTER_BOUND ( 'NONE', #28, .T. ) ;
#31 = CARTESIAN_POINT ( 'NONE',  ( -0.1111399268190030321, 0.1925000000000000600, -0.01562500000000000000 ) ) ;
#32 = CARTESIAN_POINT ( 'NONE',  ( 0.2222798536380059253, 6.082630298393085841E-17, 0.01562500000000000000 ) ) ;
#33 =( NAMED_UNIT ( * ) PLANE_ANGLE_UNIT ( ) SI_UNIT ( $, .RADIAN. ) );
#34 = CARTESIAN_POINT ( 'NONE',  ( 0.000000000000000000, 0.000000000000000000, -0.01562500000000000000 ) ) ;
#35 = DIRECTION ( 'NONE',  ( -0.5000000000000001110, 0.8660254037844385966, 0.000000000000000000 ) ) ;
#36 = CARTESIAN_POINT ( 'NONE',  ( -0.3125000000000000000, 0.000000000000000000, -0.01562500000000000000 ) ) ;
#37 = DIRECTION ( 'NONE',  ( 0.8660254037844385966, 0.5000000000000001110, -0.000000000000000000 ) ) ;
#38 = VECTOR ( 'NONE', #35, 39.37007874015748143 ) ;
#39 = DIRECTION ( 'NONE',  ( 0.4999999999999997224, 0.8660254037844388186, 0.000000000000000000 ) ) ;
#40 = VECTOR ( 'NONE', #56, 39.37007874015748143 ) ;
#41 = CARTESIAN_POINT ( 'NONE',  ( -0.3125000000000000000, 0.000000000000000000, 0.01562500000000000000 ) ) ;
#42 = EDGE_CURVE ( 'NONE', #290, #241, #307, .T. ) ;
#43 = DIRECTION ( 'NONE',  ( -0.000000000000000000, -0.000000000000000000, -1.000000000000000000 ) ) ;
#44 = FACE_OUTER_BOUND ( 'NONE', #349, .T. ) ;
#45 = EDGE_CURVE ( 'NONE', #241, #290, #99, .T. ) ;
#46 = LINE ( 'NONE', #146, #319 ) ;
#47 =( LENGTH_UNIT ( ) NAMED_UNIT ( * ) SI_UNIT ( $, .METRE. ) );
#48 = VECTOR ( 'NONE', #195, 39.37007874015748854 ) ;
#49 = VERTEX_POINT ( 'NONE', #294 ) ;
#50 = ORIENTED_EDGE ( 'NONE', *, *, #344, .T. ) ;
#51 = AXIS2_PLACEMENT_3D ( 'NONE', #114, #183, #208 ) ;
#52 = ORIENTED_EDGE ( 'NONE', *, *, #297, .F. ) ;
#53 = ORIENTED_EDGE ( 'NONE', *, *, #252, .T. ) ;
#54 = EDGE_LOOP ( 'NONE', ( #302, #53, #323, #77 ) ) ;
#55 = EDGE_CURVE ( 'NONE', #127, #347, #271, .T. ) ;
#56 = DIRECTION ( 'NONE',  ( -1.000000000000000000, -1.536266079084936368E-16, 0.000000000000000000 ) ) ;
#57 = CARTESIAN_POINT ( 'NONE',  ( 0.3125000000000000000, 3.827021247335478926E-17, -0.01562500000000000000 ) ) ;
#58 = CARTESIAN_POINT ( 'NONE',  ( 0.000000000000000000, 0.000000000000000000, 0.01562500000000000000 ) ) ;
#59 = CARTESIAN_POINT ( 'NONE',  ( -0.1111399268190030321, 0.1925000000000000600, 0.01562500000000000000 ) ) ;
#60 = EDGE_LOOP ( 'NONE', ( #52, #345, #237, #152 ) ) ;
#61 =( LENGTH_UNIT ( ) NAMED_UNIT ( * ) SI_UNIT ( $, .METRE. ) );
#62 = CARTESIAN_POINT ( 'NONE',  ( 0.1111399268190028100, 0.1925000000000000877, 0.01562500000000000000 ) ) ;
#63 = FACE_OUTER_BOUND ( 'NONE', #60, .T. ) ;
#64 = DIRECTION ( 'NONE',  ( 0.000000000000000000, 0.000000000000000000, 1.000000000000000000 ) ) ;
#65 = LINE ( 'NONE', #218, #155 ) ;
#66 = VECTOR ( 'NONE', #203, 39.37007874015748143 ) ;
#67 = CARTESIAN_POINT ( 'NONE',  ( -0.2222798536380059253, -5.975917486140575174E-17, 0.01562500000000000000 ) ) ;
#68 = LINE ( 'NONE', #165, #282 ) ;
#69 = DIRECTION ( 'NONE',  ( -0.8660254037844388186, 0.4999999999999996114, 0.000000000000000000 ) ) ;
#70 = PRODUCT_DEFINITION ( 'UNKNOWN', '', #229, #291 ) ;
#71 = VECTOR ( 'NONE', #210, 39.37007874015748143 ) ;
#72 = CARTESIAN_POINT ( 'NONE',  ( 0.1111399268190029627, -0.1925000000000000877, 0.01562500000000000000 ) ) ;
#73 = DIRECTION ( 'NONE',  ( -0.000000000000000000, -0.000000000000000000, -1.000000000000000000 ) ) ;
#74 = AXIS2_PLACEMENT_3D ( 'NONE', #120, #75, #102 ) ;
#75 = DIRECTION ( 'NONE',  ( 0.000000000000000000, 0.000000000000000000, 1.000000000000000000 ) ) ;
#76 = APPLICATION_PROTOCOL_DEFINITION ( 'draft international standard', 'automotive_design', 1998, #261 ) ;
#77 = ORIENTED_EDGE ( 'NONE', *, *, #29, .F. ) ;
#78 = ORIENTED_EDGE ( 'NONE', *, *, #206, .T. ) ;
#79 = EDGE_CURVE ( 'NONE', #230, #23, #286, .T. ) ;
#80 = VERTEX_POINT ( 'NONE', #158 ) ;
#81 = VECTOR ( 'NONE', #191, 39.37007874015748143 ) ;
#82 = ORIENTED_EDGE ( 'NONE', *, *, #125, .T. ) ;
#83 = ADVANCED_FACE ( 'NONE', ( #164, #30 ), #333, .F. ) ;
#84 = VERTEX_POINT ( 'NONE', #246 ) ;
#85 = AXIS2_PLACEMENT_3D ( 'NONE', #97, #188, #326 ) ;
#86 = VERTEX_POINT ( 'NONE', #5 ) ;
#87 = COLOUR_RGB ( '',0.2509803921568627416, 0.2509803921568627416, 0.2509803921568627416 ) ;
#88 = LINE ( 'NONE', #288, #66 ) ;
#89 = PLANE ( 'NONE',  #126 ) ;
#90 = LINE ( 'NONE', #336, #116 ) ;
#91 = DIRECTION ( 'NONE',  ( 1.000000000000000000, 0.000000000000000000, -0.000000000000000000 ) ) ;
#92 = DIRECTION ( 'NONE',  ( -1.000000000000000000, 0.000000000000000000, 0.000000000000000000 ) ) ;
#93 = CARTESIAN_POINT ( 'NONE',  ( 0.1111399268190028516, 0.1925000000000000600, -0.01562500000000000000 ) ) ;
#94 = LENGTH_MEASURE_WITH_UNIT ( LENGTH_MEASURE( 0.02539999999999999897 ), #61 );
#95 = AXIS2_PLACEMENT_3D ( 'NONE', #72, #69, #121 ) ;
#96 = EDGE_CURVE ( 'NONE', #84, #348, #275, .T. ) ;
#97 = CARTESIAN_POINT ( 'NONE',  ( 0.000000000000000000, 0.000000000000000000, 0.01562500000000000000 ) ) ;
#98 = LENGTH_MEASURE_WITH_UNIT ( LENGTH_MEASURE( 0.02539999999999999897 ), #172 );
#99 = CIRCLE ( 'NONE', #222, 0.3125000000000000000 ) ;
#100 = SURFACE_STYLE_FILL_AREA ( #255 ) ;
#101 = LINE ( 'NONE', #166, #239 ) ;
#102 = DIRECTION ( 'NONE',  ( 1.000000000000000000, 0.000000000000000000, 0.000000000000000000 ) ) ;
#103 = EDGE_LOOP ( 'NONE', ( #233, #285, #82, #130 ) ) ;
#104 = ORIENTED_EDGE ( 'NONE', *, *, #174, .T. ) ;
#105 = ORIENTED_EDGE ( 'NONE', *, *, #45, .F. ) ;
#106 = AXIS2_PLACEMENT_3D ( 'NONE', #247, #136, #142 ) ;
#107 = ORIENTED_EDGE ( 'NONE', *, *, #125, .F. ) ;
#108 = LINE ( 'NONE', #62, #71 ) ;
#109 = AXIS2_PLACEMENT_3D ( 'NONE', #137, #184, #117 ) ;
#110 = CARTESIAN_POINT ( 'NONE',  ( 0.1111399268190029627, -0.1925000000000000877, -0.01562500000000000000 ) ) ;
#111 = EDGE_CURVE ( 'NONE', #23, #230, #177, .T. ) ;
#112 = DIRECTION ( 'NONE',  ( 1.536266079084936861E-16, -1.000000000000000000, 0.000000000000000000 ) ) ;
#113 = DIRECTION ( 'NONE',  ( 0.000000000000000000, -0.000000000000000000, -1.000000000000000000 ) ) ;
#114 = CARTESIAN_POINT ( 'NONE',  ( 0.000000000000000000, 0.000000000000000000, 0.01562500000000000000 ) ) ;
#115 = DIRECTION ( 'NONE',  ( 0.4999999999999995559, 0.8660254037844389297, 0.000000000000000000 ) ) ;
#116 = VECTOR ( 'NONE', #167, 39.37007874015748143 ) ;
#117 = DIRECTION ( 'NONE',  ( 1.000000000000000000, 0.000000000000000000, -0.000000000000000000 ) ) ;
#118 = LINE ( 'NONE', #31, #181 ) ;
#119 =( NAMED_UNIT ( * ) SI_UNIT ( $, .STERADIAN. ) SOLID_ANGLE_UNIT ( ) );
#120 = CARTESIAN_POINT ( 'NONE',  ( 0.000000000000000000, 0.000000000000000000, 0.000000000000000000 ) ) ;
#121 = DIRECTION ( 'NONE',  ( -0.4999999999999996114, -0.8660254037844388186, 0.000000000000000000 ) ) ;
#122 = VECTOR ( 'NONE', #73, 39.37007874015748143 ) ;
#123 =( CONVERSION_BASED_UNIT ( 'INCH', #341 ) LENGTH_UNIT ( ) NAMED_UNIT ( #327 ) );
#124 = ORIENTED_EDGE ( 'NONE', *, *, #252, .F. ) ;
#125 = EDGE_CURVE ( 'NONE', #290, #23, #279, .T. ) ;
#126 = AXIS2_PLACEMENT_3D ( 'NONE', #269, #135, #91 ) ;
#127 = VERTEX_POINT ( 'NONE', #67 ) ;
#128 = ORIENTED_EDGE ( 'NONE', *, *, #171, .F. ) ;
#129 = ORIENTED_EDGE ( 'NONE', *, *, #193, .F. ) ;
#130 = ORIENTED_EDGE ( 'NONE', *, *, #111, .T. ) ;
#131 =( GEOMETRIC_REPRESENTATION_CONTEXT ( 3 ) GLOBAL_UNCERTAINTY_ASSIGNED_CONTEXT ( ( #27 ) ) GLOBAL_UNIT_ASSIGNED_CONTEXT ( ( #17, #189, #337 ) ) REPRESENTATION_CONTEXT ( 'NONE', 'WORKASPACE' ) );
#132 = DIRECTION ( 'NONE',  ( -1.000000000000000000, 0.000000000000000000, 0.000000000000000000 ) ) ;
#133 = ORIENTED_EDGE ( 'NONE', *, *, #96, .F. ) ;
#134 = CARTESIAN_POINT ( 'NONE',  ( -0.2222798536380059808, -8.594212203931051638E-17, -0.01562500000000000000 ) ) ;
#135 = DIRECTION ( 'NONE',  ( 0.000000000000000000, 0.000000000000000000, 1.000000000000000000 ) ) ;
#136 = DIRECTION ( 'NONE',  ( -1.536266079084936368E-16, 1.000000000000000000, 0.000000000000000000 ) ) ;
#137 = CARTESIAN_POINT ( 'NONE',  ( 0.000000000000000000, 0.000000000000000000, -0.01562500000000000000 ) ) ;
#138 = PLANE ( 'NONE',  #312 ) ;
#139 = ORIENTED_EDGE ( 'NONE', *, *, #351, .T. ) ;
#140 = CARTESIAN_POINT ( 'NONE',  ( -0.3125000000000000000, 0.000000000000000000, 0.01562500000000000000 ) ) ;
#141 =( GEOMETRIC_REPRESENTATION_CONTEXT ( 3 ) GLOBAL_UNCERTAINTY_ASSIGNED_CONTEXT ( ( #322 ) ) GLOBAL_UNIT_ASSIGNED_CONTEXT ( ( #190, #33, #119 ) ) REPRESENTATION_CONTEXT ( 'NONE', 'WORKASPACE' ) );
#142 = DIRECTION ( 'NONE',  ( -1.000000000000000000, -1.536266079084936368E-16, 0.000000000000000000 ) ) ;
#143 = CARTESIAN_POINT ( 'NONE',  ( 0.1111399268190029627, -0.1925000000000000877, 0.01562500000000000000 ) ) ;
#144 = FILL_AREA_STYLE_COLOUR ( '', #249 ) ;
#145 = CARTESIAN_POINT ( 'NONE',  ( 0.000000000000000000, 0.000000000000000000, 0.01562500000000000000 ) ) ;
#146 = CARTESIAN_POINT ( 'NONE',  ( -0.1111399268190029488, -0.1925000000000001432, 0.01562500000000000000 ) ) ;
#147 = MANIFOLD_SOLID_BREP ( 'Boss-Extrude1', #169 ) ;
#148 = ORIENTED_EDGE ( 'NONE', *, *, #79, .F. ) ;
#149 = EDGE_CURVE ( 'NONE', #86, #127, #192, .T. ) ;
#150 = STYLED_ITEM ( 'NONE', ( #340 ), #147 ) ;
#151 = ORIENTED_EDGE ( 'NONE', *, *, #111, .F. ) ;
#152 = ORIENTED_EDGE ( 'NONE', *, *, #219, .F. ) ;
#153 = PLANE ( 'NONE',  #257 ) ;
#154 = ORIENTED_EDGE ( 'NONE', *, *, #149, .F. ) ;
#155 = VECTOR ( 'NONE', #4, 39.37007874015748143 ) ;
#156 = CARTESIAN_POINT ( 'NONE',  ( 0.000000000000000000, 0.000000000000000000, -0.01562500000000000000 ) ) ;
#157 = FACE_OUTER_BOUND ( 'NONE', #287, .T. ) ;
#158 = CARTESIAN_POINT ( 'NONE',  ( 0.2222798536380059253, 5.876204919467902438E-17, 0.01562500000000000000 ) ) ;
#159 = CARTESIAN_POINT ( 'NONE',  ( 0.3125000000000000000, 3.827021247335478926E-17, 0.01562500000000000000 ) ) ;
#160 = CARTESIAN_POINT ( 'NONE',  ( 0.1111399268190028516, 0.1925000000000000877, 0.01562500000000000000 ) ) ;
#161 = FACE_OUTER_BOUND ( 'NONE', #187, .T. ) ;
#162 = CARTESIAN_POINT ( 'NONE',  ( -0.2222798536380059808, -3.414809992080329023E-17, 0.01562500000000000000 ) ) ;
#163 = FACE_OUTER_BOUND ( 'NONE', #103, .T. ) ;
#164 = FACE_BOUND ( 'NONE', #262, .T. ) ;
#165 = CARTESIAN_POINT ( 'NONE',  ( -0.1111399268190030182, 0.1925000000000000600, 0.01562500000000000000 ) ) ;
#166 = CARTESIAN_POINT ( 'NONE',  ( 0.2222798536380059253, 6.082630298393085841E-17, 0.01562500000000000000 ) ) ;
#167 = DIRECTION ( 'NONE',  ( 0.5000000000000004441, -0.8660254037844383745, 0.000000000000000000 ) ) ;
#168 = VECTOR ( 'NONE', #115, 39.37007874015748143 ) ;
#169 = CLOSED_SHELL ( 'NONE', ( #182, #6, #238, #18, #325, #277, #266, #197, #272, #83 ) ) ;
#170 = LINE ( 'NONE', #253, #48 ) ;
#171 = EDGE_CURVE ( 'NONE', #283, #49, #170, .T. ) ;
#172 =( LENGTH_UNIT ( ) NAMED_UNIT ( * ) SI_UNIT ( $, .METRE. ) );
#173 = VECTOR ( 'NONE', #209, 39.37007874015748143 ) ;
#174 = EDGE_CURVE ( 'NONE', #49, #80, #101, .T. ) ;
#175 = EDGE_LOOP ( 'NONE', ( #317, #24, #263, #176, #318, #314 ) ) ;
#176 = ORIENTED_EDGE ( 'NONE', *, *, #297, .T. ) ;
#177 = CIRCLE ( 'NONE', #232, 0.3125000000000000000 ) ;
#178 = EDGE_LOOP ( 'NONE', ( #259, #202, #50, #124 ) ) ;
#179 = EDGE_LOOP ( 'NONE', ( #200, #201 ) ) ;
#180 = DIRECTION ( 'NONE',  ( -1.000000000000000000, 0.000000000000000000, 0.000000000000000000 ) ) ;
#181 = VECTOR ( 'NONE', #39, 39.37007874015748143 ) ;
#182 = ADVANCED_FACE ( 'NONE', ( #44 ), #309, .T. ) ;
#183 = DIRECTION ( 'NONE',  ( 0.000000000000000000, 0.000000000000000000, 1.000000000000000000 ) ) ;
#184 = DIRECTION ( 'NONE',  ( 0.000000000000000000, 0.000000000000000000, 1.000000000000000000 ) ) ;
#185 = CARTESIAN_POINT ( 'NONE',  ( 0.1111399268190028378, 0.1925000000000000600, 0.01562500000000000000 ) ) ;
#186 = LINE ( 'NONE', #274, #38 ) ;
#187 = EDGE_LOOP ( 'NONE', ( #154, #204, #296, #236 ) ) ;
#188 = DIRECTION ( 'NONE',  ( -0.000000000000000000, -0.000000000000000000, -1.000000000000000000 ) ) ;
#189 =( NAMED_UNIT ( * ) PLANE_ANGLE_UNIT ( ) SI_UNIT ( $, .RADIAN. ) );
#190 =( CONVERSION_BASED_UNIT ( 'INCH', #94 ) LENGTH_UNIT ( ) NAMED_UNIT ( #301 ) );
#191 = DIRECTION ( 'NONE',  ( -0.000000000000000000, -0.000000000000000000, -1.000000000000000000 ) ) ;
#192 = LINE ( 'NONE', #335, #227 ) ;
#193 = EDGE_CURVE ( 'NONE', #20, #84, #254, .T. ) ;
#194 = AXIS2_PLACEMENT_3D ( 'NONE', #34, #8, #92 ) ;
#195 = DIRECTION ( 'NONE',  ( 0.5000000000000004441, -0.8660254037844382635, 0.000000000000000000 ) ) ;
#196 = CARTESIAN_POINT ( 'NONE',  ( 0.3125000000000000000, 3.827021247335478926E-17, 0.01562500000000000000 ) ) ;
#197 = ADVANCED_FACE ( 'NONE', ( #15 ), #306, .T. ) ;
#198 = MECHANICAL_DESIGN_GEOMETRIC_PRESENTATION_REPRESENTATION (  '', ( #321 ), #343 ) ;
#199 = VERTEX_POINT ( 'NONE', #224 ) ;
#200 = ORIENTED_EDGE ( 'NONE', *, *, #42, .T. ) ;
#201 = ORIENTED_EDGE ( 'NONE', *, *, #45, .T. ) ;
#202 = ORIENTED_EDGE ( 'NONE', *, *, #55, .T. ) ;
#203 = DIRECTION ( 'NONE',  ( 1.000000000000000000, 0.000000000000000000, -0.000000000000000000 ) ) ;
#204 = ORIENTED_EDGE ( 'NONE', *, *, #219, .T. ) ;
#205 = DIRECTION ( 'NONE',  ( -0.000000000000000000, -0.000000000000000000, -1.000000000000000000 ) ) ;
#206 = EDGE_CURVE ( 'NONE', #241, #230, #220, .T. ) ;
#207 = ORIENTED_EDGE ( 'NONE', *, *, #174, .F. ) ;
#208 = DIRECTION ( 'NONE',  ( -1.000000000000000000, 0.000000000000000000, 0.000000000000000000 ) ) ;
#209 = DIRECTION ( 'NONE',  ( -0.4999999999999996114, -0.8660254037844388186, 0.000000000000000000 ) ) ;
#210 = DIRECTION ( 'NONE',  ( -0.000000000000000000, -0.000000000000000000, -1.000000000000000000 ) ) ;
#211 = DIRECTION ( 'NONE',  ( -0.5000000000000001110, 0.8660254037844385966, 0.000000000000000000 ) ) ;
#212 = FACE_OUTER_BOUND ( 'NONE', #54, .T. ) ;
#213 = PRESENTATION_LAYER_ASSIGNMENT (  '', '', ( #321 ) ) ;
#214 = DIRECTION ( 'NONE',  ( 1.000000000000000000, 1.536266079084936861E-16, 0.000000000000000000 ) ) ;
#215 = CARTESIAN_POINT ( 'NONE',  ( -0.1111399268190029627, -0.1925000000000001432, -0.01562500000000000000 ) ) ;
#216 = CARTESIAN_POINT ( 'NONE',  ( 0.1111399268190028516, 0.1925000000000000877, -0.01562500000000000000 ) ) ;
#217 = FILL_AREA_STYLE_COLOUR ( '', #87 ) ;
#218 = CARTESIAN_POINT ( 'NONE',  ( 0.000000000000000000, -0.1925000000000000877, 0.01562500000000000000 ) ) ;
#219 = EDGE_CURVE ( 'NONE', #86, #348, #46, .T. ) ;
#220 = LINE ( 'NONE', #196, #122 ) ;
#221 = SURFACE_STYLE_USAGE ( .BOTH. , #251 ) ;
#222 = AXIS2_PLACEMENT_3D ( 'NONE', #58, #64, #180 ) ;
#223 = SURFACE_SIDE_STYLE ('',( #256 ) ) ;
#224 = CARTESIAN_POINT ( 'NONE',  ( -0.1111399268190030321, 0.1925000000000000600, -0.01562500000000000000 ) ) ;
#225 = EDGE_CURVE ( 'NONE', #240, #346, #88, .T. ) ;
#226 = PRESENTATION_STYLE_ASSIGNMENT (( #280 ) ) ;
#227 = VECTOR ( 'NONE', #11, 39.37007874015748854 ) ;
#228 = APPLICATION_PROTOCOL_DEFINITION ( 'draft international standard', 'automotive_design', 1998, #299 ) ;
#229 = PRODUCT_DEFINITION_FORMATION_WITH_SPECIFIED_SOURCE ( 'ANY', '', #339, .NOT_KNOWN. ) ;
#230 = VERTEX_POINT ( 'NONE', #57 ) ;
#231 =( NAMED_UNIT ( * ) SI_UNIT ( $, .STERADIAN. ) SOLID_ANGLE_UNIT ( ) );
#232 = AXIS2_PLACEMENT_3D ( 'NONE', #156, #268, #132 ) ;
#233 = ORIENTED_EDGE ( 'NONE', *, *, #206, .F. ) ;
#234 = PRODUCT_RELATED_PRODUCT_CATEGORY ( 'part', '', ( #339 ) ) ;
#235 = ORIENTED_EDGE ( 'NONE', *, *, #13, .F. ) ;
#236 = ORIENTED_EDGE ( 'NONE', *, *, #55, .F. ) ;
#237 = ORIENTED_EDGE ( 'NONE', *, *, #96, .T. ) ;
#238 = ADVANCED_FACE ( 'NONE', ( #157 ), #153, .T. ) ;
#239 = VECTOR ( 'NONE', #311, 39.37007874015748143 ) ;
#240 = VERTEX_POINT ( 'NONE', #59 ) ;
#241 = VERTEX_POINT ( 'NONE', #159 ) ;
#242 = CARTESIAN_POINT ( 'NONE',  ( -0.1111399268190029627, -0.1925000000000001432, -0.01562500000000000000 ) ) ;
#243 = ADVANCED_BREP_SHAPE_REPRESENTATION ( '217-8173', ( #147, #74 ), #141 ) ;
#244 = DIRECTION ( 'NONE',  ( -0.4999999999999996114, -0.8660254037844388186, 0.000000000000000000 ) ) ;
#245 = CARTESIAN_POINT ( 'NONE',  ( -0.2222798536380059808, -6.829619984160656814E-17, 0.01562500000000000000 ) ) ;
#246 = CARTESIAN_POINT ( 'NONE',  ( 0.1111399268190029627, -0.1925000000000000877, -0.01562500000000000000 ) ) ;
#247 = CARTESIAN_POINT ( 'NONE',  ( -0.1111399268190029627, -0.1925000000000001432, 0.01562500000000000000 ) ) ;
#248 = ORIENTED_EDGE ( 'NONE', *, *, #284, .F. ) ;
#249 = COLOUR_RGB ( '',0.2509803921568627416, 0.2509803921568627416, 0.2509803921568627416 ) ;
#250 = DIRECTION ( 'NONE',  ( 0.8660254037844388186, -0.4999999999999997224, 0.000000000000000000 ) ) ;
#251 = SURFACE_SIDE_STYLE ('',( #100 ) ) ;
#252 = EDGE_CURVE ( 'NONE', #240, #199, #68, .T. ) ;
#253 = CARTESIAN_POINT ( 'NONE',  ( 0.2222798536380059253, 6.082630298393085841E-17, -0.01562500000000000000 ) ) ;
#254 = LINE ( 'NONE', #143, #81 ) ;
#255 = FILL_AREA_STYLE ('',( #217 ) ) ;
#256 = SURFACE_STYLE_FILL_AREA ( #14 ) ;
#257 = AXIS2_PLACEMENT_3D ( 'NONE', #264, #25, #295 ) ;
#258 = ORIENTED_EDGE ( 'NONE', *, *, #29, .T. ) ;
#259 = ORIENTED_EDGE ( 'NONE', *, *, #289, .F. ) ;
#260 = VECTOR ( 'NONE', #43, 39.37007874015748143 ) ;
#261 = APPLICATION_CONTEXT ( 'automotive_design' ) ;
#262 = EDGE_LOOP ( 'NONE', ( #316, #128, #328, #320, #248, #133 ) ) ;
#263 = ORIENTED_EDGE ( 'NONE', *, *, #13, .T. ) ;
#264 = CARTESIAN_POINT ( 'NONE',  ( 0.2222798536380059253, 6.082630298393085841E-17, 0.01562500000000000000 ) ) ;
#265 = UNCERTAINTY_MEASURE_WITH_UNIT (LENGTH_MEASURE( 1.000000000000000082E-05 ), #123, 'distance_accuracy_value', 'NONE');
#266 = ADVANCED_FACE ( 'NONE', ( #63 ), #270, .T. ) ;
#267 = EDGE_LOOP ( 'NONE', ( #235, #207, #139, #129 ) ) ;
#268 = DIRECTION ( 'NONE',  ( 0.000000000000000000, 0.000000000000000000, 1.000000000000000000 ) ) ;
#269 = CARTESIAN_POINT ( 'NONE',  ( 0.000000000000000000, 0.000000000000000000, 0.01562500000000000000 ) ) ;
#270 = PLANE ( 'NONE',  #106 ) ;
#271 = LINE ( 'NONE', #162, #338 ) ;
#272 = ADVANCED_FACE ( 'NONE', ( #163 ), #332, .T. ) ;
#273 = DIRECTION ( 'NONE',  ( 0.000000000000000000, -0.000000000000000000, -1.000000000000000000 ) ) ;
#274 = CARTESIAN_POINT ( 'NONE',  ( -0.2222798536380059808, -6.829619984160656814E-17, -0.01562500000000000000 ) ) ;
#275 = LINE ( 'NONE', #215, #40 ) ;
#276 = PLANE ( 'NONE',  #330 ) ;
#277 = ADVANCED_FACE ( 'NONE', ( #161 ), #138, .T. ) ;
#278 = VECTOR ( 'NONE', #214, 39.37007874015748143 ) ;
#279 = LINE ( 'NONE', #41, #260 ) ;
#280 = SURFACE_STYLE_USAGE ( .BOTH. , #223 ) ;
#281 = ORIENTED_EDGE ( 'NONE', *, *, #313, .F. ) ;
#282 = VECTOR ( 'NONE', #113, 39.37007874015748143 ) ;
#283 = VERTEX_POINT ( 'NONE', #93 ) ;
#284 = EDGE_CURVE ( 'NONE', #348, #347, #186, .T. ) ;
#285 = ORIENTED_EDGE ( 'NONE', *, *, #42, .F. ) ;
#286 = CIRCLE ( 'NONE', #194, 0.3125000000000000000 ) ;
#287 = EDGE_LOOP ( 'NONE', ( #281, #258, #26, #104 ) ) ;
#288 = CARTESIAN_POINT ( 'NONE',  ( 0.000000000000000000, 0.1925000000000000600, 0.01562500000000000000 ) ) ;
#289 = EDGE_CURVE ( 'NONE', #127, #240, #7, .T. ) ;
#290 = VERTEX_POINT ( 'NONE', #140 ) ;
#291 = PRODUCT_DEFINITION_CONTEXT ( 'detailed design', #299, 'design' ) ;
#292 = LINE ( 'NONE', #32, #324 ) ;
#293 = DIMENSIONAL_EXPONENTS ( 1.000000000000000000, 0.000000000000000000, 0.000000000000000000, 0.000000000000000000, 0.000000000000000000, 0.000000000000000000, 0.000000000000000000 ) ;
#294 = CARTESIAN_POINT ( 'NONE',  ( 0.2222798536380059253, 8.090165078893435988E-17, -0.01562500000000000000 ) ) ;
#295 = DIRECTION ( 'NONE',  ( 0.5000000000000004441, -0.8660254037844382635, 0.000000000000000000 ) ) ;
#296 = ORIENTED_EDGE ( 'NONE', *, *, #284, .T. ) ;
#297 = EDGE_CURVE ( 'NONE', #20, #86, #65, .T. ) ;
#298 = CARTESIAN_POINT ( 'NONE',  ( -0.1111399268190030321, 0.1925000000000000600, 0.01562500000000000000 ) ) ;
#299 = APPLICATION_CONTEXT ( 'automotive_design' ) ;
#300 = DIRECTION ( 'NONE',  ( 1.000000000000000000, 1.536266079084936861E-16, 0.000000000000000000 ) ) ;
#301 = DIMENSIONAL_EXPONENTS ( 1.000000000000000000, 0.000000000000000000, 0.000000000000000000, 0.000000000000000000, 0.000000000000000000, 0.000000000000000000, 0.000000000000000000 ) ;
#302 = ORIENTED_EDGE ( 'NONE', *, *, #225, .F. ) ;
#303 = CARTESIAN_POINT ( 'NONE',  ( -0.2222798536380059253, -6.829619984160658046E-17, 0.01562500000000000000 ) ) ;
#304 = EDGE_CURVE ( 'NONE', #199, #283, #329, .T. ) ;
#305 = MECHANICAL_DESIGN_GEOMETRIC_PRESENTATION_REPRESENTATION (  '', ( #150 ), #131 ) ;
#306 = PLANE ( 'NONE',  #95 ) ;
#307 = CIRCLE ( 'NONE', #51, 0.3125000000000000000 ) ;
#308 = DIRECTION ( 'NONE',  ( -1.000000000000000000, 0.000000000000000000, 0.000000000000000000 ) ) ;
#309 = CYLINDRICAL_SURFACE ( 'NONE', #16, 0.3125000000000000000 ) ;
#310 = SHAPE_DEFINITION_REPRESENTATION ( #315, #243 ) ;
#311 = DIRECTION ( 'NONE',  ( 0.000000000000000000, 0.000000000000000000, 1.000000000000000000 ) ) ;
#312 = AXIS2_PLACEMENT_3D ( 'NONE', #245, #37, #211 ) ;
#313 = EDGE_CURVE ( 'NONE', #346, #80, #90, .T. ) ;
#314 = ORIENTED_EDGE ( 'NONE', *, *, #289, .T. ) ;
#315 = PRODUCT_DEFINITION_SHAPE ( 'NONE', 'NONE',  #70 ) ;
#316 = ORIENTED_EDGE ( 'NONE', *, *, #351, .F. ) ;
#317 = ORIENTED_EDGE ( 'NONE', *, *, #225, .T. ) ;
#318 = ORIENTED_EDGE ( 'NONE', *, *, #149, .T. ) ;
#319 = VECTOR ( 'NONE', #205, 39.37007874015748143 ) ;
#320 = ORIENTED_EDGE ( 'NONE', *, *, #344, .F. ) ;
#321 = STYLED_ITEM ( 'NONE', ( #226 ), #243 ) ;
#322 = UNCERTAINTY_MEASURE_WITH_UNIT (LENGTH_MEASURE( 1.000000000000000082E-05 ), #190, 'distance_accuracy_value', 'NONE');
#323 = ORIENTED_EDGE ( 'NONE', *, *, #304, .T. ) ;
#324 = VECTOR ( 'NONE', #244, 39.37007874015748143 ) ;
#325 = ADVANCED_FACE ( 'NONE', ( #2 ), #276, .T. ) ;
#326 = DIRECTION ( 'NONE',  ( -1.000000000000000000, 0.000000000000000000, 0.000000000000000000 ) ) ;
#327 = DIMENSIONAL_EXPONENTS ( 1.000000000000000000, 0.000000000000000000, 0.000000000000000000, 0.000000000000000000, 0.000000000000000000, 0.000000000000000000, 0.000000000000000000 ) ;
#328 = ORIENTED_EDGE ( 'NONE', *, *, #304, .F. ) ;
#329 = LINE ( 'NONE', #216, #278 ) ;
#330 = AXIS2_PLACEMENT_3D ( 'NONE', #298, #250, #9 ) ;
#331 = CARTESIAN_POINT ( 'NONE',  ( 0.1111399268190029627, -0.1925000000000000877, 0.01562500000000000000 ) ) ;
#332 = CYLINDRICAL_SURFACE ( 'NONE', #85, 0.3125000000000000000 ) ;
#333 = PLANE ( 'NONE',  #109 ) ;
#334 = PRESENTATION_LAYER_ASSIGNMENT (  '', '', ( #150 ) ) ;
#335 = CARTESIAN_POINT ( 'NONE',  ( -0.1111399268190029627, -0.1925000000000001432, 0.01562500000000000000 ) ) ;
#336 = CARTESIAN_POINT ( 'NONE',  ( 0.1111399268190028516, 0.1925000000000000877, 0.01562500000000000000 ) ) ;
#337 =( NAMED_UNIT ( * ) SI_UNIT ( $, .STERADIAN. ) SOLID_ANGLE_UNIT ( ) );
#338 = VECTOR ( 'NONE', #273, 39.37007874015748143 ) ;
#339 = PRODUCT ( '217-8173', '217-8173', '', ( #12 ) ) ;
#340 = PRESENTATION_STYLE_ASSIGNMENT (( #221 ) ) ;
#341 = LENGTH_MEASURE_WITH_UNIT ( LENGTH_MEASURE( 0.02539999999999999897 ), #47 );
#342 = DIRECTION ( 'NONE',  ( -0.000000000000000000, -0.000000000000000000, -1.000000000000000000 ) ) ;
#343 =( GEOMETRIC_REPRESENTATION_CONTEXT ( 3 ) GLOBAL_UNCERTAINTY_ASSIGNED_CONTEXT ( ( #265 ) ) GLOBAL_UNIT_ASSIGNED_CONTEXT ( ( #123, #19, #231 ) ) REPRESENTATION_CONTEXT ( 'NONE', 'WORKASPACE' ) );
#344 = EDGE_CURVE ( 'NONE', #347, #199, #118, .T. ) ;
#345 = ORIENTED_EDGE ( 'NONE', *, *, #193, .T. ) ;
#346 = VERTEX_POINT ( 'NONE', #185 ) ;
#347 = VERTEX_POINT ( 'NONE', #134 ) ;
#348 = VERTEX_POINT ( 'NONE', #242 ) ;
#349 = EDGE_LOOP ( 'NONE', ( #105, #78, #22, #107 ) ) ;
#350 = FACE_BOUND ( 'NONE', #175, .T. ) ;
#351 = EDGE_CURVE ( 'NONE', #49, #84, #10, .T. ) ;
ENDSEC;
END-ISO-10303-21;
