ISO-10303-21;
HEADER;
FILE_DESCRIPTION (( 'STEP AP214' ),
    '1' );
FILE_NAME ('217-3443-STEP.STEP',
    '2013-12-06T21:10:53',
    ( '' ),
    ( '' ),
    'SwSTEP 2.0',
    'SolidWorks 2013',
    '' );
FILE_SCHEMA (( 'AUTOMOTIVE_DESIGN' ));
ENDSEC;

DATA;
#1 = ORIENTED_EDGE ( 'NONE', *, *, #195, .F. ) ;
#2 = VECTOR ( 'NONE', #312, 39.37007874015748100 ) ;
#3 = CARTESIAN_POINT ( 'NONE',  ( -0.3125000000000000000, 0.0000000000000000000, 0.5000000000000000000 ) ) ;
#4 = ORIENTED_EDGE ( 'NONE', *, *, #327, .F. ) ;
#5 = CARTESIAN_POINT ( 'NONE',  ( 0.1111399268190028500, 0.1925000000000000900, -0.5000000000000000000 ) ) ;
#6 = DIRECTION ( 'NONE',  ( 1.000000000000000000, 0.0000000000000000000, 0.0000000000000000000 ) ) ;
#7 = PLANE ( 'NONE',  #118 ) ;
#8 =( NAMED_UNIT ( * ) PLANE_ANGLE_UNIT ( ) SI_UNIT ( $, .RADIAN. ) );
#9 = ORIENTED_EDGE ( 'NONE', *, *, #313, .F. ) ;
#10 = CARTESIAN_POINT ( 'NONE',  ( -0.1111399268190029600, -0.1925000000000001400, 0.5000000000000000000 ) ) ;
#11 = AXIS2_PLACEMENT_3D ( 'NONE', #165, #207, #31 ) ;
#12 = VERTEX_POINT ( 'NONE', #101 ) ;
#13 = CARTESIAN_POINT ( 'NONE',  ( -0.2222798536380059800, -6.829619984160656800E-017, 0.5000000000000000000 ) ) ;
#14 = DIRECTION ( 'NONE',  ( 1.000000000000000000, 0.0000000000000000000, 0.0000000000000000000 ) ) ;
#15 = VECTOR ( 'NONE', #88, 39.37007874015748900 ) ;
#16 =( CONVERSION_BASED_UNIT ( 'INCH', #23 ) LENGTH_UNIT ( ) NAMED_UNIT ( #157 ) );
#17 = VECTOR ( 'NONE', #47, 39.37007874015748100 ) ;
#18 = LINE ( 'NONE', #257, #294 ) ;
#19 = ORIENTED_EDGE ( 'NONE', *, *, #348, .F. ) ;
#20 = EDGE_LOOP ( 'NONE', ( #1, #19, #91, #24 ) ) ;
#21 = ORIENTED_EDGE ( 'NONE', *, *, #308, .F. ) ;
#22 = LINE ( 'NONE', #242, #2 ) ;
#23 = LENGTH_MEASURE_WITH_UNIT ( LENGTH_MEASURE( 0.02539999999999999900 ), #185 );
#24 = ORIENTED_EDGE ( 'NONE', *, *, #124, .T. ) ;
#25 = PLANE ( 'NONE',  #175 ) ;
#26 = CARTESIAN_POINT ( 'NONE',  ( 0.1111399268190029600, -0.1925000000000000900, 0.5000000000000000000 ) ) ;
#27 = FACE_OUTER_BOUND ( 'NONE', #267, .T. ) ;
#28 = VERTEX_POINT ( 'NONE', #241 ) ;
#29 = DIRECTION ( 'NONE',  ( -0.0000000000000000000, -0.0000000000000000000, -1.000000000000000000 ) ) ;
#30 = LINE ( 'NONE', #103, #60 ) ;
#31 = DIRECTION ( 'NONE',  ( 1.000000000000000000, 0.0000000000000000000, 0.0000000000000000000 ) ) ;
#32 = CARTESIAN_POINT ( 'NONE',  ( 0.3125000000000000000, 3.827021247335478900E-017, -0.5000000000000000000 ) ) ;
#33 = DIRECTION ( 'NONE',  ( 0.8660254037844387100, 0.5000000000000001100, -0.0000000000000000000 ) ) ;
#34 = ORIENTED_EDGE ( 'NONE', *, *, #329, .F. ) ;
#35 = ORIENTED_EDGE ( 'NONE', *, *, #273, .T. ) ;
#36 = DIRECTION ( 'NONE',  ( 1.000000000000000000, 0.0000000000000000000, -0.0000000000000000000 ) ) ;
#37 =( NAMED_UNIT ( * ) SI_UNIT ( $, .STERADIAN. ) SOLID_ANGLE_UNIT ( ) );
#38 = UNCERTAINTY_MEASURE_WITH_UNIT (LENGTH_MEASURE( 1.000000000000000100E-005 ), #16, 'distance_accuracy_value', 'NONE');
#39 = ORIENTED_EDGE ( 'NONE', *, *, #94, .T. ) ;
#40 = ORIENTED_EDGE ( 'NONE', *, *, #195, .T. ) ;
#41 = ADVANCED_FACE ( 'NONE', ( #27 ), #152, .T. ) ;
#42 = DIRECTION ( 'NONE',  ( -1.536266079084936400E-016, 1.000000000000000000, 0.0000000000000000000 ) ) ;
#43 = VECTOR ( 'NONE', #228, 39.37007874015748100 ) ;
#44 = ORIENTED_EDGE ( 'NONE', *, *, #289, .T. ) ;
#45 = LINE ( 'NONE', #5, #148 ) ;
#46 = DIRECTION ( 'NONE',  ( 0.5000000000000000000, -0.8660254037844386000, 0.0000000000000000000 ) ) ;
#47 = DIRECTION ( 'NONE',  ( -0.0000000000000000000, -0.0000000000000000000, -1.000000000000000000 ) ) ;
#48 = UNCERTAINTY_MEASURE_WITH_UNIT (LENGTH_MEASURE( 1.000000000000000100E-005 ), #145, 'distance_accuracy_value', 'NONE');
#49 = CARTESIAN_POINT ( 'NONE',  ( -0.2222798536380059800, -6.829619984160656800E-017, 0.5000000000000000000 ) ) ;
#50 = DIRECTION ( 'NONE',  ( 0.0000000000000000000, 0.0000000000000000000, 1.000000000000000000 ) ) ;
#51 = VECTOR ( 'NONE', #149, 39.37007874015748100 ) ;
#52 = VERTEX_POINT ( 'NONE', #111 ) ;
#53 = CARTESIAN_POINT ( 'NONE',  ( 0.0000000000000000000, 0.0000000000000000000, 0.5000000000000000000 ) ) ;
#54 = VECTOR ( 'NONE', #297, 39.37007874015748100 ) ;
#55 = LINE ( 'NONE', #244, #43 ) ;
#56 = APPLICATION_CONTEXT ( 'automotive_design' ) ;
#57 = ORIENTED_EDGE ( 'NONE', *, *, #289, .F. ) ;
#58 = LINE ( 'NONE', #72, #17 ) ;
#59 = CARTESIAN_POINT ( 'NONE',  ( -0.1111399268190030300, 0.1925000000000000600, -0.5000000000000000000 ) ) ;
#60 = VECTOR ( 'NONE', #279, 39.37007874015748100 ) ;
#61 = VERTEX_POINT ( 'NONE', #349 ) ;
#62 = ORIENTED_EDGE ( 'NONE', *, *, #324, .F. ) ;
#63 = CARTESIAN_POINT ( 'NONE',  ( -0.2222798536380059800, -6.829619984160656800E-017, 0.5000000000000000000 ) ) ;
#64 = ORIENTED_EDGE ( 'NONE', *, *, #329, .T. ) ;
#65 =( GEOMETRIC_REPRESENTATION_CONTEXT ( 3 ) GLOBAL_UNCERTAINTY_ASSIGNED_CONTEXT ( ( #48 ) ) GLOBAL_UNIT_ASSIGNED_CONTEXT ( ( #145, #333, #171 ) ) REPRESENTATION_CONTEXT ( 'NONE', 'WORKASPACE' ) );
#66 = ORIENTED_EDGE ( 'NONE', *, *, #213, .F. ) ;
#67 = CARTESIAN_POINT ( 'NONE',  ( 0.1111399268190029600, -0.1925000000000000900, -0.5000000000000000000 ) ) ;
#68 = MECHANICAL_DESIGN_GEOMETRIC_PRESENTATION_REPRESENTATION (  '', ( #78 ), #65 ) ;
#69 = VERTEX_POINT ( 'NONE', #161 ) ;
#70 = FILL_AREA_STYLE_COLOUR ( '', #186 ) ;
#71 = ADVANCED_FACE ( 'NONE', ( #190 ), #222, .T. ) ;
#72 = CARTESIAN_POINT ( 'NONE',  ( 0.2222798536380059300, 6.082630298393085800E-017, 0.5000000000000000000 ) ) ;
#73 = FACE_BOUND ( 'NONE', #291, .T. ) ;
#74 = ADVANCED_FACE ( 'NONE', ( #309 ), #191, .T. ) ;
#75 = EDGE_LOOP ( 'NONE', ( #295, #90, #35, #220 ) ) ;
#76 = ORIENTED_EDGE ( 'NONE', *, *, #124, .F. ) ;
#77 = PRESENTATION_LAYER_ASSIGNMENT (  '', '', ( #78 ) ) ;
#78 = STYLED_ITEM ( 'NONE', ( #211 ), #218 ) ;
#79 = ORIENTED_EDGE ( 'NONE', *, *, #87, .F. ) ;
#80 = ORIENTED_EDGE ( 'NONE', *, *, #348, .T. ) ;
#81 = CIRCLE ( 'NONE', #178, 0.3125000000000000000 ) ;
#82 = ORIENTED_EDGE ( 'NONE', *, *, #159, .T. ) ;
#83 = ORIENTED_EDGE ( 'NONE', *, *, #337, .T. ) ;
#84 = DIRECTION ( 'NONE',  ( -0.0000000000000000000, -0.0000000000000000000, -1.000000000000000000 ) ) ;
#85 = DIRECTION ( 'NONE',  ( -0.0000000000000000000, -0.0000000000000000000, -1.000000000000000000 ) ) ;
#86 = DIRECTION ( 'NONE',  ( -0.0000000000000000000, -0.0000000000000000000, -1.000000000000000000 ) ) ;
#87 = EDGE_CURVE ( 'NONE', #310, #311, #246, .T. ) ;
#88 = DIRECTION ( 'NONE',  ( 0.5000000000000000000, -0.8660254037844386000, 0.0000000000000000000 ) ) ;
#89 = DIRECTION ( 'NONE',  ( -1.000000000000000000, -1.536266079084936900E-016, 0.0000000000000000000 ) ) ;
#90 = ORIENTED_EDGE ( 'NONE', *, *, #284, .T. ) ;
#91 = ORIENTED_EDGE ( 'NONE', *, *, #313, .T. ) ;
#92 = FILL_AREA_STYLE ('',( #268 ) ) ;
#93 = LINE ( 'NONE', #49, #15 ) ;
#94 = EDGE_CURVE ( 'NONE', #202, #12, #288, .T. ) ;
#95 = VECTOR ( 'NONE', #86, 39.37007874015748100 ) ;
#96 = CARTESIAN_POINT ( 'NONE',  ( -0.1111399268190030300, 0.1925000000000000600, -0.5000000000000000000 ) ) ;
#97 = VERTEX_POINT ( 'NONE', #32 ) ;
#98 = VERTEX_POINT ( 'NONE', #120 ) ;
#99 = CARTESIAN_POINT ( 'NONE',  ( 0.2222798536380059300, 6.082630298393085800E-017, 0.5000000000000000000 ) ) ;
#100 = AXIS2_PLACEMENT_3D ( 'NONE', #53, #85, #266 ) ;
#101 = CARTESIAN_POINT ( 'NONE',  ( -0.1111399268190029600, -0.1925000000000001400, -0.5000000000000000000 ) ) ;
#102 =( GEOMETRIC_REPRESENTATION_CONTEXT ( 3 ) GLOBAL_UNCERTAINTY_ASSIGNED_CONTEXT ( ( #277 ) ) GLOBAL_UNIT_ASSIGNED_CONTEXT ( ( #169, #8, #205 ) ) REPRESENTATION_CONTEXT ( 'NONE', 'WORKASPACE' ) );
#103 = CARTESIAN_POINT ( 'NONE',  ( 0.3125000000000000000, 3.827021247335478900E-017, 0.5000000000000000000 ) ) ;
#104 = CARTESIAN_POINT ( 'NONE',  ( -0.1111399268190030300, 0.1925000000000000600, 0.5000000000000000000 ) ) ;
#105 = CARTESIAN_POINT ( 'NONE',  ( 0.0000000000000000000, 0.0000000000000000000, -0.5000000000000000000 ) ) ;
#106 = CYLINDRICAL_SURFACE ( 'NONE', #184, 0.3125000000000000000 ) ;
#107 =( GEOMETRIC_REPRESENTATION_CONTEXT ( 3 ) GLOBAL_UNCERTAINTY_ASSIGNED_CONTEXT ( ( #38 ) ) GLOBAL_UNIT_ASSIGNED_CONTEXT ( ( #16, #215, #37 ) ) REPRESENTATION_CONTEXT ( 'NONE', 'WORKASPACE' ) );
#108 = MECHANICAL_DESIGN_GEOMETRIC_PRESENTATION_REPRESENTATION (  '', ( #116 ), #107 ) ;
#109 = ORIENTED_EDGE ( 'NONE', *, *, #350, .F. ) ;
#110 = FACE_OUTER_BOUND ( 'NONE', #224, .T. ) ;
#111 = CARTESIAN_POINT ( 'NONE',  ( -0.2222798536380059800, -6.829619984160656800E-017, -0.5000000000000000000 ) ) ;
#112 = PRODUCT_DEFINITION ( 'UNKNOWN', '', #130, #345 ) ;
#113 = PRESENTATION_STYLE_ASSIGNMENT (( #341 ) ) ;
#114 = DIRECTION ( 'NONE',  ( 1.536266079084936900E-016, -1.000000000000000000, 0.0000000000000000000 ) ) ;
#115 = PRESENTATION_LAYER_ASSIGNMENT (  '', '', ( #116 ) ) ;
#116 = STYLED_ITEM ( 'NONE', ( #113 ), #334 ) ;
#117 = CARTESIAN_POINT ( 'NONE',  ( 0.0000000000000000000, 0.0000000000000000000, 0.5000000000000000000 ) ) ;
#118 = AXIS2_PLACEMENT_3D ( 'NONE', #26, #271, #119 ) ;
#119 = DIRECTION ( 'NONE',  ( -0.4999999999999996100, -0.8660254037844388200, 0.0000000000000000000 ) ) ;
#120 = CARTESIAN_POINT ( 'NONE',  ( -0.2222798536380059300, -6.829619984160658000E-017, 0.5000000000000000000 ) ) ;
#121 = SURFACE_STYLE_USAGE ( .BOTH. , #274 ) ;
#122 = DIRECTION ( 'NONE',  ( -0.4999999999999996100, -0.8660254037844388200, 0.0000000000000000000 ) ) ;
#123 = LENGTH_MEASURE_WITH_UNIT ( LENGTH_MEASURE( 0.02539999999999999900 ), #303 );
#124 = EDGE_CURVE ( 'NONE', #98, #52, #188, .T. ) ;
#125 = DIRECTION ( 'NONE',  ( 0.5000000000000004400, -0.8660254037844383700, 0.0000000000000000000 ) ) ;
#126 = AXIS2_PLACEMENT_3D ( 'NONE', #105, #282, #131 ) ;
#127 = ORIENTED_EDGE ( 'NONE', *, *, #162, .T. ) ;
#128 = PRODUCT_RELATED_PRODUCT_CATEGORY ( 'part', '', ( #181 ) ) ;
#129 = DIRECTION ( 'NONE',  ( -0.4999999999999996100, -0.8660254037844388200, 0.0000000000000000000 ) ) ;
#130 = PRODUCT_DEFINITION_FORMATION_WITH_SPECIFIED_SOURCE ( 'ANY', '', #181, .NOT_KNOWN. ) ;
#131 = DIRECTION ( 'NONE',  ( 1.000000000000000000, 0.0000000000000000000, 0.0000000000000000000 ) ) ;
#132 = CIRCLE ( 'NONE', #192, 0.3125000000000000000 ) ;
#133 = AXIS2_PLACEMENT_3D ( 'NONE', #167, #270, #232 ) ;
#134 = CARTESIAN_POINT ( 'NONE',  ( -0.1111399268190029600, -0.1925000000000001400, 0.5000000000000000000 ) ) ;
#135 = FACE_OUTER_BOUND ( 'NONE', #75, .T. ) ;
#136 = DIRECTION ( 'NONE',  ( 1.000000000000000000, 0.0000000000000000000, 0.0000000000000000000 ) ) ;
#137 = LINE ( 'NONE', #138, #54 ) ;
#138 = CARTESIAN_POINT ( 'NONE',  ( -0.1111399268190030300, 0.1925000000000000600, 0.5000000000000000000 ) ) ;
#139 = AXIS2_PLACEMENT_3D ( 'NONE', #117, #141, #331 ) ;
#140 = ORIENTED_EDGE ( 'NONE', *, *, #305, .F. ) ;
#141 = DIRECTION ( 'NONE',  ( 0.0000000000000000000, 0.0000000000000000000, 1.000000000000000000 ) ) ;
#142 = CARTESIAN_POINT ( 'NONE',  ( 0.2222798536380059300, 6.082630298393085800E-017, 0.5000000000000000000 ) ) ;
#143 = CARTESIAN_POINT ( 'NONE',  ( -0.1111399268190029600, -0.1925000000000001400, -0.5000000000000000000 ) ) ;
#144 = ORIENTED_EDGE ( 'NONE', *, *, #339, .F. ) ;
#145 =( CONVERSION_BASED_UNIT ( 'INCH', #123 ) LENGTH_UNIT ( ) NAMED_UNIT ( #259 ) );
#146 = VERTEX_POINT ( 'NONE', #301 ) ;
#147 = VECTOR ( 'NONE', #46, 39.37007874015748900 ) ;
#148 = VECTOR ( 'NONE', #199, 39.37007874015748100 ) ;
#149 = DIRECTION ( 'NONE',  ( -0.0000000000000000000, -0.0000000000000000000, -1.000000000000000000 ) ) ;
#150 = ORIENTED_EDGE ( 'NONE', *, *, #339, .T. ) ;
#151 = EDGE_CURVE ( 'NONE', #240, #61, #237, .T. ) ;
#152 = PLANE ( 'NONE',  #255 ) ;
#153 = DIRECTION ( 'NONE',  ( -0.5000000000000000000, 0.8660254037844386000, 0.0000000000000000000 ) ) ;
#154 = ORIENTED_EDGE ( 'NONE', *, *, #350, .T. ) ;
#155 = DIMENSIONAL_EXPONENTS ( 1.000000000000000000, 0.0000000000000000000, 0.0000000000000000000, 0.0000000000000000000, 0.0000000000000000000, 0.0000000000000000000, 0.0000000000000000000 ) ;
#156 = SURFACE_SIDE_STYLE ('',( #160 ) ) ;
#157 = DIMENSIONAL_EXPONENTS ( 1.000000000000000000, 0.0000000000000000000, 0.0000000000000000000, 0.0000000000000000000, 0.0000000000000000000, 0.0000000000000000000, 0.0000000000000000000 ) ;
#158 = FACE_OUTER_BOUND ( 'NONE', #209, .T. ) ;
#159 = EDGE_CURVE ( 'NONE', #311, #28, #263, .T. ) ;
#160 = SURFACE_STYLE_FILL_AREA ( #316 ) ;
#161 = CARTESIAN_POINT ( 'NONE',  ( -0.3125000000000000000, 0.0000000000000000000, -0.5000000000000000000 ) ) ;
#162 = EDGE_CURVE ( 'NONE', #12, #311, #217, .T. ) ;
#163 = VECTOR ( 'NONE', #208, 39.37007874015748100 ) ;
#164 = VECTOR ( 'NONE', #183, 39.37007874015748100 ) ;
#165 = CARTESIAN_POINT ( 'NONE',  ( 0.0000000000000000000, 0.0000000000000000000, 0.0000000000000000000 ) ) ;
#166 = DIRECTION ( 'NONE',  ( 0.0000000000000000000, 0.0000000000000000000, 1.000000000000000000 ) ) ;
#167 = CARTESIAN_POINT ( 'NONE',  ( -0.1111399268190030300, 0.1925000000000000600, 0.5000000000000000000 ) ) ;
#168 = ORIENTED_EDGE ( 'NONE', *, *, #273, .F. ) ;
#169 =( CONVERSION_BASED_UNIT ( 'INCH', #281 ) LENGTH_UNIT ( ) NAMED_UNIT ( #155 ) );
#170 = CARTESIAN_POINT ( 'NONE',  ( 0.1111399268190028500, 0.1925000000000000900, 0.5000000000000000000 ) ) ;
#171 =( NAMED_UNIT ( * ) SI_UNIT ( $, .STERADIAN. ) SOLID_ANGLE_UNIT ( ) );
#172 = LINE ( 'NONE', #96, #314 ) ;
#173 = CARTESIAN_POINT ( 'NONE',  ( 0.0000000000000000000, 0.0000000000000000000, 0.5000000000000000000 ) ) ;
#174 = CIRCLE ( 'NONE', #126, 0.3125000000000000000 ) ;
#175 = AXIS2_PLACEMENT_3D ( 'NONE', #251, #212, #36 ) ;
#176 = SHAPE_DEFINITION_REPRESENTATION ( #198, #218 ) ;
#177 = CARTESIAN_POINT ( 'NONE',  ( 0.1111399268190029600, -0.1925000000000000900, 0.5000000000000000000 ) ) ;
#178 = AXIS2_PLACEMENT_3D ( 'NONE', #340, #182, #14 ) ;
#179 = ORIENTED_EDGE ( 'NONE', *, *, #87, .T. ) ;
#180 = VERTEX_POINT ( 'NONE', #254 ) ;
#181 = PRODUCT ( '217-3443-STEP', '217-3443-STEP', '', ( #236 ) ) ;
#182 = DIRECTION ( 'NONE',  ( 0.0000000000000000000, 0.0000000000000000000, 1.000000000000000000 ) ) ;
#183 = DIRECTION ( 'NONE',  ( -0.5000000000000004400, 0.8660254037844383700, 0.0000000000000000000 ) ) ;
#184 = AXIS2_PLACEMENT_3D ( 'NONE', #173, #84, #326 ) ;
#185 =( LENGTH_UNIT ( ) NAMED_UNIT ( * ) SI_UNIT ( $, .METRE. ) );
#186 = COLOUR_RGB ( '',0.4941176470588235500, 0.4941176470588235500, 0.4941176470588235500 ) ;
#187 = VERTEX_POINT ( 'NONE', #59 ) ;
#188 = LINE ( 'NONE', #13, #285 ) ;
#189 = ORIENTED_EDGE ( 'NONE', *, *, #278, .T. ) ;
#190 = FACE_OUTER_BOUND ( 'NONE', #325, .T. ) ;
#191 = PLANE ( 'NONE',  #223 ) ;
#192 = AXIS2_PLACEMENT_3D ( 'NONE', #328, #166, #6 ) ;
#193 = ORIENTED_EDGE ( 'NONE', *, *, #264, .T. ) ;
#194 = EDGE_LOOP ( 'NONE', ( #44, #189 ) ) ;
#195 = EDGE_CURVE ( 'NONE', #187, #52, #172, .T. ) ;
#196 = CARTESIAN_POINT ( 'NONE',  ( -0.2222798536380059800, -6.829619984160656800E-017, -0.5000000000000000000 ) ) ;
#197 = CARTESIAN_POINT ( 'NONE',  ( 0.1111399268190028500, 0.1925000000000000900, 0.5000000000000000000 ) ) ;
#198 = PRODUCT_DEFINITION_SHAPE ( 'NONE', 'NONE',  #112 ) ;
#199 = DIRECTION ( 'NONE',  ( -1.000000000000000000, -1.536266079084936900E-016, 0.0000000000000000000 ) ) ;
#200 = AXIS2_PLACEMENT_3D ( 'NONE', #265, #114, #296 ) ;
#201 = EDGE_LOOP ( 'NONE', ( #286, #57, #193, #64 ) ) ;
#202 = VERTEX_POINT ( 'NONE', #10 ) ;
#203 = PLANE ( 'NONE',  #133 ) ;
#204 = AXIS2_PLACEMENT_3D ( 'NONE', #231, #50, #136 ) ;
#205 =( NAMED_UNIT ( * ) SI_UNIT ( $, .STERADIAN. ) SOLID_ANGLE_UNIT ( ) );
#206 = DIRECTION ( 'NONE',  ( 0.4999999999999996100, 0.8660254037844388200, 0.0000000000000000000 ) ) ;
#207 = DIRECTION ( 'NONE',  ( 0.0000000000000000000, 0.0000000000000000000, 1.000000000000000000 ) ) ;
#208 = DIRECTION ( 'NONE',  ( 1.000000000000000000, 1.536266079084936400E-016, 0.0000000000000000000 ) ) ;
#209 = EDGE_LOOP ( 'NONE', ( #347, #346, #287, #80 ) ) ;
#210 = CLOSED_SHELL ( 'NONE', ( #221, #315, #283, #343, #71, #321, #74, #216, #320, #41 ) ) ;
#211 = PRESENTATION_STYLE_ASSIGNMENT (( #121 ) ) ;
#212 = DIRECTION ( 'NONE',  ( 0.0000000000000000000, 0.0000000000000000000, 1.000000000000000000 ) ) ;
#213 = EDGE_CURVE ( 'NONE', #52, #12, #304, .T. ) ;
#214 = CARTESIAN_POINT ( 'NONE',  ( -0.1111399268190030300, 0.1925000000000000600, 0.5000000000000000000 ) ) ;
#215 =( NAMED_UNIT ( * ) PLANE_ANGLE_UNIT ( ) SI_UNIT ( $, .RADIAN. ) );
#216 = ADVANCED_FACE ( 'NONE', ( #158 ), #227, .T. ) ;
#217 = LINE ( 'NONE', #143, #163 ) ;
#218 = ADVANCED_BREP_SHAPE_REPRESENTATION ( '217-3443-STEP', ( #334, #11 ), #102 ) ;
#219 = VECTOR ( 'NONE', #89, 39.37007874015748100 ) ;
#220 = ORIENTED_EDGE ( 'NONE', *, *, #264, .F. ) ;
#221 = ADVANCED_FACE ( 'NONE', ( #135 ), #106, .T. ) ;
#222 = PLANE ( 'NONE',  #239 ) ;
#223 = AXIS2_PLACEMENT_3D ( 'NONE', #99, #275, #125 ) ;
#224 = EDGE_LOOP ( 'NONE', ( #34, #168 ) ) ;
#225 = ORIENTED_EDGE ( 'NONE', *, *, #94, .F. ) ;
#226 = VECTOR ( 'NONE', #29, 39.37007874015748100 ) ;
#227 = PLANE ( 'NONE',  #200 ) ;
#228 = DIRECTION ( 'NONE',  ( -0.5000000000000004400, 0.8660254037844383700, 0.0000000000000000000 ) ) ;
#229 = CARTESIAN_POINT ( 'NONE',  ( 0.3125000000000000000, 3.827021247335478900E-017, 0.5000000000000000000 ) ) ;
#230 = EDGE_LOOP ( 'NONE', ( #351, #144, #330, #302 ) ) ;
#231 = CARTESIAN_POINT ( 'NONE',  ( 0.0000000000000000000, 0.0000000000000000000, 0.5000000000000000000 ) ) ;
#232 = DIRECTION ( 'NONE',  ( 0.4999999999999997200, 0.8660254037844388200, 0.0000000000000000000 ) ) ;
#233 = FACE_OUTER_BOUND ( 'NONE', #276, .T. ) ;
#234 = APPLICATION_PROTOCOL_DEFINITION ( 'draft international standard', 'automotive_design', 1998, #252 ) ;
#235 = CYLINDRICAL_SURFACE ( 'NONE', #100, 0.3125000000000000000 ) ;
#236 = PRODUCT_CONTEXT ( 'NONE', #252, 'mechanical' ) ;
#237 = LINE ( 'NONE', #170, #226 ) ;
#238 = LINE ( 'NONE', #300, #219 ) ;
#239 = AXIS2_PLACEMENT_3D ( 'NONE', #134, #42, #247 ) ;
#240 = VERTEX_POINT ( 'NONE', #197 ) ;
#241 = CARTESIAN_POINT ( 'NONE',  ( 0.2222798536380059300, 6.082630298393085800E-017, -0.5000000000000000000 ) ) ;
#242 = CARTESIAN_POINT ( 'NONE',  ( 0.1111399268190029600, -0.1925000000000000900, 0.5000000000000000000 ) ) ;
#243 = CARTESIAN_POINT ( 'NONE',  ( 0.1111399268190029600, -0.1925000000000000900, 0.5000000000000000000 ) ) ;
#244 = CARTESIAN_POINT ( 'NONE',  ( 0.2222798536380059300, 6.082630298393085800E-017, -0.5000000000000000000 ) ) ;
#245 = FACE_OUTER_BOUND ( 'NONE', #20, .T. ) ;
#246 = LINE ( 'NONE', #177, #269 ) ;
#247 = DIRECTION ( 'NONE',  ( -1.000000000000000000, -1.536266079084936400E-016, 0.0000000000000000000 ) ) ;
#248 = LINE ( 'NONE', #3, #95 ) ;
#249 = VECTOR ( 'NONE', #129, 39.37007874015748900 ) ;
#250 = ORIENTED_EDGE ( 'NONE', *, *, #344, .T. ) ;
#251 = CARTESIAN_POINT ( 'NONE',  ( 0.0000000000000000000, 0.0000000000000000000, -0.5000000000000000000 ) ) ;
#252 = APPLICATION_CONTEXT ( 'automotive_design' ) ;
#253 = APPLICATION_PROTOCOL_DEFINITION ( 'draft international standard', 'automotive_design', 1998, #56 ) ;
#254 = CARTESIAN_POINT ( 'NONE',  ( -0.3125000000000000000, 0.0000000000000000000, 0.5000000000000000000 ) ) ;
#255 = AXIS2_PLACEMENT_3D ( 'NONE', #63, #33, #153 ) ;
#256 = LINE ( 'NONE', #104, #249 ) ;
#257 = CARTESIAN_POINT ( 'NONE',  ( -0.1111399268190029600, -0.1925000000000001400, 0.5000000000000000000 ) ) ;
#258 = DIRECTION ( 'NONE',  ( 1.000000000000000000, 1.536266079084936400E-016, 0.0000000000000000000 ) ) ;
#259 = DIMENSIONAL_EXPONENTS ( 1.000000000000000000, 0.0000000000000000000, 0.0000000000000000000, 0.0000000000000000000, 0.0000000000000000000, 0.0000000000000000000, 0.0000000000000000000 ) ;
#260 = FACE_OUTER_BOUND ( 'NONE', #201, .T. ) ;
#261 = VERTEX_POINT ( 'NONE', #229 ) ;
#262 = SURFACE_STYLE_FILL_AREA ( #92 ) ;
#263 = LINE ( 'NONE', #272, #293 ) ;
#264 = EDGE_CURVE ( 'NONE', #180, #69, #248, .T. ) ;
#265 = CARTESIAN_POINT ( 'NONE',  ( 0.1111399268190028500, 0.1925000000000000900, 0.5000000000000000000 ) ) ;
#266 = DIRECTION ( 'NONE',  ( -1.000000000000000000, 0.0000000000000000000, 0.0000000000000000000 ) ) ;
#267 = EDGE_LOOP ( 'NONE', ( #66, #76, #154, #39 ) ) ;
#268 = FILL_AREA_STYLE_COLOUR ( '', #342 ) ;
#269 = VECTOR ( 'NONE', #336, 39.37007874015748100 ) ;
#270 = DIRECTION ( 'NONE',  ( 0.8660254037844388200, -0.4999999999999997200, 0.0000000000000000000 ) ) ;
#271 = DIRECTION ( 'NONE',  ( -0.8660254037844388200, 0.4999999999999996100, 0.0000000000000000000 ) ) ;
#272 = CARTESIAN_POINT ( 'NONE',  ( 0.1111399268190029600, -0.1925000000000000900, -0.5000000000000000000 ) ) ;
#273 = EDGE_CURVE ( 'NONE', #97, #69, #132, .T. ) ;
#274 = SURFACE_SIDE_STYLE ('',( #262 ) ) ;
#275 = DIRECTION ( 'NONE',  ( -0.8660254037844383700, -0.5000000000000004400, 0.0000000000000000000 ) ) ;
#276 = EDGE_LOOP ( 'NONE', ( #280, #79, #292, #150 ) ) ;
#277 = UNCERTAINTY_MEASURE_WITH_UNIT (LENGTH_MEASURE( 1.000000000000000100E-005 ), #169, 'distance_accuracy_value', 'NONE');
#278 = EDGE_CURVE ( 'NONE', #261, #180, #335, .T. ) ;
#279 = DIRECTION ( 'NONE',  ( -0.0000000000000000000, -0.0000000000000000000, -1.000000000000000000 ) ) ;
#280 = ORIENTED_EDGE ( 'NONE', *, *, #159, .F. ) ;
#281 = LENGTH_MEASURE_WITH_UNIT ( LENGTH_MEASURE( 0.02539999999999999900 ), #298 );
#282 = DIRECTION ( 'NONE',  ( 0.0000000000000000000, 0.0000000000000000000, 1.000000000000000000 ) ) ;
#283 = ADVANCED_FACE ( 'NONE', ( #110, #73 ), #25, .F. ) ;
#284 = EDGE_CURVE ( 'NONE', #261, #97, #30, .T. ) ;
#285 = VECTOR ( 'NONE', #332, 39.37007874015748100 ) ;
#286 = ORIENTED_EDGE ( 'NONE', *, *, #284, .F. ) ;
#287 = ORIENTED_EDGE ( 'NONE', *, *, #324, .T. ) ;
#288 = LINE ( 'NONE', #322, #51 ) ;
#289 = EDGE_CURVE ( 'NONE', #180, #261, #81, .T. ) ;
#290 = LINE ( 'NONE', #142, #164 ) ;
#291 = EDGE_LOOP ( 'NONE', ( #127, #82, #83, #250, #40, #323 ) ) ;
#292 = ORIENTED_EDGE ( 'NONE', *, *, #305, .T. ) ;
#293 = VECTOR ( 'NONE', #206, 39.37007874015748100 ) ;
#294 = VECTOR ( 'NONE', #258, 39.37007874015748100 ) ;
#295 = ORIENTED_EDGE ( 'NONE', *, *, #278, .F. ) ;
#296 = DIRECTION ( 'NONE',  ( 1.000000000000000000, 1.536266079084936900E-016, 0.0000000000000000000 ) ) ;
#297 = DIRECTION ( 'NONE',  ( -0.0000000000000000000, -0.0000000000000000000, -1.000000000000000000 ) ) ;
#298 =( LENGTH_UNIT ( ) NAMED_UNIT ( * ) SI_UNIT ( $, .METRE. ) );
#299 = PLANE ( 'NONE',  #139 ) ;
#300 = CARTESIAN_POINT ( 'NONE',  ( 0.1111399268190028500, 0.1925000000000000900, 0.5000000000000000000 ) ) ;
#301 = CARTESIAN_POINT ( 'NONE',  ( 0.2222798536380059300, 6.082630298393085800E-017, 0.5000000000000000000 ) ) ;
#302 = ORIENTED_EDGE ( 'NONE', *, *, #151, .T. ) ;
#303 =( LENGTH_UNIT ( ) NAMED_UNIT ( * ) SI_UNIT ( $, .METRE. ) );
#304 = LINE ( 'NONE', #196, #147 ) ;
#305 = EDGE_CURVE ( 'NONE', #310, #146, #22, .T. ) ;
#306 = FACE_BOUND ( 'NONE', #318, .T. ) ;
#307 = VERTEX_POINT ( 'NONE', #214 ) ;
#308 = EDGE_CURVE ( 'NONE', #202, #310, #18, .T. ) ;
#309 = FACE_OUTER_BOUND ( 'NONE', #230, .T. ) ;
#310 = VERTEX_POINT ( 'NONE', #243 ) ;
#311 = VERTEX_POINT ( 'NONE', #67 ) ;
#312 = DIRECTION ( 'NONE',  ( 0.4999999999999996100, 0.8660254037844388200, 0.0000000000000000000 ) ) ;
#313 = EDGE_CURVE ( 'NONE', #307, #98, #256, .T. ) ;
#314 = VECTOR ( 'NONE', #122, 39.37007874015748900 ) ;
#315 = ADVANCED_FACE ( 'NONE', ( #317, #306 ), #299, .T. ) ;
#316 = FILL_AREA_STYLE ('',( #70 ) ) ;
#317 = FACE_OUTER_BOUND ( 'NONE', #194, .T. ) ;
#318 = EDGE_LOOP ( 'NONE', ( #140, #21, #109, #9, #62, #4 ) ) ;
#319 = ORIENTED_EDGE ( 'NONE', *, *, #308, .T. ) ;
#320 = ADVANCED_FACE ( 'NONE', ( #245 ), #203, .T. ) ;
#321 = ADVANCED_FACE ( 'NONE', ( #233 ), #7, .T. ) ;
#322 = CARTESIAN_POINT ( 'NONE',  ( -0.1111399268190029600, -0.1925000000000001400, 0.5000000000000000000 ) ) ;
#323 = ORIENTED_EDGE ( 'NONE', *, *, #213, .T. ) ;
#324 = EDGE_CURVE ( 'NONE', #240, #307, #238, .T. ) ;
#325 = EDGE_LOOP ( 'NONE', ( #338, #225, #319, #179 ) ) ;
#326 = DIRECTION ( 'NONE',  ( -1.000000000000000000, 0.0000000000000000000, 0.0000000000000000000 ) ) ;
#327 = EDGE_CURVE ( 'NONE', #146, #240, #290, .T. ) ;
#328 = CARTESIAN_POINT ( 'NONE',  ( 0.0000000000000000000, 0.0000000000000000000, -0.5000000000000000000 ) ) ;
#329 = EDGE_CURVE ( 'NONE', #69, #97, #174, .T. ) ;
#330 = ORIENTED_EDGE ( 'NONE', *, *, #327, .T. ) ;
#331 = DIRECTION ( 'NONE',  ( 1.000000000000000000, 0.0000000000000000000, -0.0000000000000000000 ) ) ;
#332 = DIRECTION ( 'NONE',  ( -0.0000000000000000000, -0.0000000000000000000, -1.000000000000000000 ) ) ;
#333 =( NAMED_UNIT ( * ) PLANE_ANGLE_UNIT ( ) SI_UNIT ( $, .RADIAN. ) );
#334 = MANIFOLD_SOLID_BREP ( 'Boss-Extrude1', #210 ) ;
#335 = CIRCLE ( 'NONE', #204, 0.3125000000000000000 ) ;
#336 = DIRECTION ( 'NONE',  ( -0.0000000000000000000, -0.0000000000000000000, -1.000000000000000000 ) ) ;
#337 = EDGE_CURVE ( 'NONE', #28, #61, #55, .T. ) ;
#338 = ORIENTED_EDGE ( 'NONE', *, *, #162, .F. ) ;
#339 = EDGE_CURVE ( 'NONE', #146, #28, #58, .T. ) ;
#340 = CARTESIAN_POINT ( 'NONE',  ( 0.0000000000000000000, 0.0000000000000000000, 0.5000000000000000000 ) ) ;
#341 = SURFACE_STYLE_USAGE ( .BOTH. , #156 ) ;
#342 = COLOUR_RGB ( '',0.4941176470588235500, 0.4941176470588235500, 0.4941176470588235500 ) ;
#343 = ADVANCED_FACE ( 'NONE', ( #260 ), #235, .T. ) ;
#344 = EDGE_CURVE ( 'NONE', #61, #187, #45, .T. ) ;
#345 = PRODUCT_DEFINITION_CONTEXT ( 'detailed design', #56, 'design' ) ;
#346 = ORIENTED_EDGE ( 'NONE', *, *, #151, .F. ) ;
#347 = ORIENTED_EDGE ( 'NONE', *, *, #344, .F. ) ;
#348 = EDGE_CURVE ( 'NONE', #307, #187, #137, .T. ) ;
#349 = CARTESIAN_POINT ( 'NONE',  ( 0.1111399268190028500, 0.1925000000000000900, -0.5000000000000000000 ) ) ;
#350 = EDGE_CURVE ( 'NONE', #98, #202, #93, .T. ) ;
#351 = ORIENTED_EDGE ( 'NONE', *, *, #337, .F. ) ;
ENDSEC;
END-ISO-10303-21;
