ISO-10303-21;
HEADER;
FILE_DESCRIPTION (( 'STEP AP214' ),
    '1' );
FILE_NAME ('217-3311 Release.STEP',
    '2014-01-23T23:10:04',
    ( '' ),
    ( '' ),
    'SwSTEP 2.0',
    'SolidWorks 2013',
    '' );
FILE_SCHEMA (( 'AUTOMOTIVE_DESIGN' ));
ENDSEC;

DATA;
#1 =( CONVERSION_BASED_UNIT ( 'INCH', #152 ) LENGTH_UNIT ( ) NAMED_UNIT ( #161 ) );
#2 = CARTESIAN_POINT ( 'NONE',  ( -0.2490000000000000000, 0.0000000000000000000, 9.000000000000000000 ) ) ;
#3 = FACE_OUTER_BOUND ( 'NONE', #215, .T. ) ;
#4 = CLOSED_SHELL ( 'NONE', ( #166, #176, #173, #172, #171, #170 ) ) ;
#5 = FACE_OUTER_BOUND ( 'NONE', #214, .T. ) ;
#6 = FACE_OUTER_BOUND ( 'NONE', #209, .T. ) ;
#7 = COLOUR_RGB ( '',0.8666666666666667000, 0.9098039215686274400, 1.000000000000000000 ) ;
#8 = CARTESIAN_POINT ( 'NONE',  ( 0.2490000000000000000, 3.049370529876909500E-017, 9.000000000000000000 ) ) ;
#9 = SURFACE_STYLE_USAGE ( .BOTH. , #51 ) ;
#10 = DIRECTION ( 'NONE',  ( -0.0000000000000000000, -0.0000000000000000000, -1.000000000000000000 ) ) ;
#11 = PRESENTATION_LAYER_ASSIGNMENT (  '', '', ( #17 ) ) ;
#12 = FACE_OUTER_BOUND ( 'NONE', #223, .T. ) ;
#13 = MECHANICAL_DESIGN_GEOMETRIC_PRESENTATION_REPRESENTATION (  '', ( #17 ), #219 ) ;
#14 = UNCERTAINTY_MEASURE_WITH_UNIT (LENGTH_MEASURE( 1.000000000000000100E-005 ), #154, 'distance_accuracy_value', 'NONE');
#15 = FACE_OUTER_BOUND ( 'NONE', #220, .T. ) ;
#16 = CARTESIAN_POINT ( 'NONE',  ( 0.2490000000000000000, 3.049370529876909500E-017, -9.000000000000000000 ) ) ;
#17 = STYLED_ITEM ( 'NONE', ( #93 ), #185 ) ;
#18 = DIRECTION ( 'NONE',  ( 1.000000000000000000, 0.0000000000000000000, 0.0000000000000000000 ) ) ;
#19 = DIRECTION ( 'NONE',  ( 0.0000000000000000000, 0.0000000000000000000, 1.000000000000000000 ) ) ;
#20 = CARTESIAN_POINT ( 'NONE',  ( 0.0000000000000000000, 0.0000000000000000000, -9.000000000000000000 ) ) ;
#21 = CIRCLE ( 'NONE', #97, 0.1290000000000000300 ) ;
#22 = CARTESIAN_POINT ( 'NONE',  ( 0.0000000000000000000, 0.0000000000000000000, 9.000000000000000000 ) ) ;
#23 = VERTEX_POINT ( 'NONE', #86 ) ;
#24 = SURFACE_SIDE_STYLE ('',( #55 ) ) ;
#25 = PRODUCT_CONTEXT ( 'NONE', #112, 'mechanical' ) ;
#26 = CIRCLE ( 'NONE', #95, 0.1290000000000000300 ) ;
#27 = CARTESIAN_POINT ( 'NONE',  ( -0.2490000000000000000, 0.0000000000000000000, 9.000000000000000000 ) ) ;
#28 = FILL_AREA_STYLE ('',( #74 ) ) ;
#29 = AXIS2_PLACEMENT_3D ( 'NONE', #60, #59, #63 ) ;
#30 = CIRCLE ( 'NONE', #98, 0.2490000000000000000 ) ;
#31 = MANIFOLD_SOLID_BREP ( 'Boss-Extrude1', #4 ) ;
#32 = AXIS2_PLACEMENT_3D ( 'NONE', #142, #126, #143 ) ;
#33 = VERTEX_POINT ( 'NONE', #217 ) ;
#34 = VECTOR ( 'NONE', #10, 39.37007874015748100 ) ;
#35 = DIRECTION ( 'NONE',  ( 1.000000000000000000, 0.0000000000000000000, 0.0000000000000000000 ) ) ;
#36 = FILL_AREA_STYLE_COLOUR ( '', #7 ) ;
#37 = CARTESIAN_POINT ( 'NONE',  ( -0.2490000000000000000, 0.0000000000000000000, -9.000000000000000000 ) ) ;
#38 = CARTESIAN_POINT ( 'NONE',  ( 0.1290000000000000300, 1.579794370900086100E-017, -9.000000000000000000 ) ) ;
#39 = CIRCLE ( 'NONE', #107, 0.2490000000000000000 ) ;
#40 = DIRECTION ( 'NONE',  ( 0.0000000000000000000, 0.0000000000000000000, 1.000000000000000000 ) ) ;
#41 =( LENGTH_UNIT ( ) NAMED_UNIT ( * ) SI_UNIT ( $, .METRE. ) );
#42 = LINE ( 'NONE', #27, #34 ) ;
#43 = DIRECTION ( 'NONE',  ( 0.0000000000000000000, 0.0000000000000000000, 1.000000000000000000 ) ) ;
#44 = AXIS2_PLACEMENT_3D ( 'NONE', #80, #91, #65 ) ;
#45 = UNCERTAINTY_MEASURE_WITH_UNIT (LENGTH_MEASURE( 1.000000000000000100E-005 ), #82, 'distance_accuracy_value', 'NONE');
#46 = VECTOR ( 'NONE', #75, 39.37007874015748100 ) ;
#47 = MECHANICAL_DESIGN_GEOMETRIC_PRESENTATION_REPRESENTATION (  '', ( #129 ), #118 ) ;
#48 = PRODUCT_DEFINITION_CONTEXT ( 'detailed design', #73, 'design' ) ;
#49 = CIRCLE ( 'NONE', #104, 0.1290000000000000300 ) ;
#50 = CYLINDRICAL_SURFACE ( 'NONE', #78, 0.1290000000000000300 ) ;
#51 = SURFACE_SIDE_STYLE ('',( #117 ) ) ;
#52 = CARTESIAN_POINT ( 'NONE',  ( 0.1290000000000000300, 1.579794370900086100E-017, 9.000000000000000000 ) ) ;
#53 = UNCERTAINTY_MEASURE_WITH_UNIT (LENGTH_MEASURE( 1.000000000000000100E-005 ), #1, 'distance_accuracy_value', 'NONE');
#54 = CIRCLE ( 'NONE', #114, 0.2490000000000000000 ) ;
#55 = SURFACE_STYLE_FILL_AREA ( #216 ) ;
#56 =( GEOMETRIC_REPRESENTATION_CONTEXT ( 3 ) GLOBAL_UNCERTAINTY_ASSIGNED_CONTEXT ( ( #53 ) ) GLOBAL_UNIT_ASSIGNED_CONTEXT ( ( #1, #76, #201 ) ) REPRESENTATION_CONTEXT ( 'NONE', 'WORKASPACE' ) );
#57 = CIRCLE ( 'NONE', #115, 0.2490000000000000000 ) ;
#58 = COLOUR_RGB ( '',0.8666666666666667000, 0.9098039215686274400, 1.000000000000000000 ) ;
#59 = DIRECTION ( 'NONE',  ( -0.0000000000000000000, -0.0000000000000000000, -1.000000000000000000 ) ) ;
#60 = CARTESIAN_POINT ( 'NONE',  ( 0.0000000000000000000, 0.0000000000000000000, 9.000000000000000000 ) ) ;
#61 = VECTOR ( 'NONE', #119, 39.37007874015748100 ) ;
#62 = LENGTH_MEASURE_WITH_UNIT ( LENGTH_MEASURE( 0.02539999999999999900 ), #204 );
#63 = DIRECTION ( 'NONE',  ( -1.000000000000000000, 0.0000000000000000000, 0.0000000000000000000 ) ) ;
#64 = CARTESIAN_POINT ( 'NONE',  ( 0.0000000000000000000, 0.0000000000000000000, 9.000000000000000000 ) ) ;
#65 = DIRECTION ( 'NONE',  ( 1.000000000000000000, 0.0000000000000000000, -0.0000000000000000000 ) ) ;
#66 = LINE ( 'NONE', #52, #61 ) ;
#67 = DIRECTION ( 'NONE',  ( 1.000000000000000000, 0.0000000000000000000, 0.0000000000000000000 ) ) ;
#68 = FACE_BOUND ( 'NONE', #137, .T. ) ;
#69 = LINE ( 'NONE', #102, #72 ) ;
#70 = CIRCLE ( 'NONE', #88, 0.1290000000000000300 ) ;
#71 = EDGE_CURVE ( 'NONE', #23, #202, #66, .T. ) ;
#72 = VECTOR ( 'NONE', #87, 39.37007874015748100 ) ;
#73 = APPLICATION_CONTEXT ( 'automotive_design' ) ;
#74 = FILL_AREA_STYLE_COLOUR ( '', #58 ) ;
#75 = DIRECTION ( 'NONE',  ( -0.0000000000000000000, -0.0000000000000000000, -1.000000000000000000 ) ) ;
#76 =( NAMED_UNIT ( * ) PLANE_ANGLE_UNIT ( ) SI_UNIT ( $, .RADIAN. ) );
#77 = CYLINDRICAL_SURFACE ( 'NONE', #29, 0.2490000000000000000 ) ;
#78 = AXIS2_PLACEMENT_3D ( 'NONE', #169, #183, #145 ) ;
#79 = PLANE ( 'NONE',  #44 ) ;
#80 = CARTESIAN_POINT ( 'NONE',  ( 0.0000000000000000000, 0.0000000000000000000, 9.000000000000000000 ) ) ;
#81 = DIRECTION ( 'NONE',  ( 1.000000000000000000, 0.0000000000000000000, -0.0000000000000000000 ) ) ;
#82 =( CONVERSION_BASED_UNIT ( 'INCH', #62 ) LENGTH_UNIT ( ) NAMED_UNIT ( #134 ) );
#83 = PRODUCT_DEFINITION_SHAPE ( 'NONE', 'NONE',  #211 ) ;
#84 = ORIENTED_EDGE ( 'NONE', *, *, #165, .F. ) ;
#85 = DIRECTION ( 'NONE',  ( 1.000000000000000000, 0.0000000000000000000, 0.0000000000000000000 ) ) ;
#86 = CARTESIAN_POINT ( 'NONE',  ( 0.1290000000000000300, 1.579794370900086100E-017, 9.000000000000000000 ) ) ;
#87 = DIRECTION ( 'NONE',  ( -0.0000000000000000000, -0.0000000000000000000, -1.000000000000000000 ) ) ;
#88 = AXIS2_PLACEMENT_3D ( 'NONE', #22, #19, #18 ) ;
#89 = FACE_BOUND ( 'NONE', #207, .T. ) ;
#90 = FACE_OUTER_BOUND ( 'NONE', #131, .T. ) ;
#91 = DIRECTION ( 'NONE',  ( 0.0000000000000000000, 0.0000000000000000000, 1.000000000000000000 ) ) ;
#92 = PLANE ( 'NONE',  #106 ) ;
#93 = PRESENTATION_STYLE_ASSIGNMENT (( #174 ) ) ;
#94 = CARTESIAN_POINT ( 'NONE',  ( 0.0000000000000000000, 0.0000000000000000000, -9.000000000000000000 ) ) ;
#95 = AXIS2_PLACEMENT_3D ( 'NONE', #167, #163, #146 ) ;
#96 = LENGTH_MEASURE_WITH_UNIT ( LENGTH_MEASURE( 0.02539999999999999900 ), #205 );
#97 = AXIS2_PLACEMENT_3D ( 'NONE', #182, #181, #180 ) ;
#98 = AXIS2_PLACEMENT_3D ( 'NONE', #20, #210, #67 ) ;
#99 =( NAMED_UNIT ( * ) PLANE_ANGLE_UNIT ( ) SI_UNIT ( $, .RADIAN. ) );
#100 =( NAMED_UNIT ( * ) SI_UNIT ( $, .STERADIAN. ) SOLID_ANGLE_UNIT ( ) );
#101 = APPLICATION_PROTOCOL_DEFINITION ( 'draft international standard', 'automotive_design', 1998, #112 ) ;
#102 = CARTESIAN_POINT ( 'NONE',  ( -0.1290000000000000300, 0.0000000000000000000, 9.000000000000000000 ) ) ;
#103 =( NAMED_UNIT ( * ) PLANE_ANGLE_UNIT ( ) SI_UNIT ( $, .RADIAN. ) );
#104 = AXIS2_PLACEMENT_3D ( 'NONE', #64, #40, #35 ) ;
#105 = AXIS2_PLACEMENT_3D ( 'NONE', #194, #110, #122 ) ;
#106 = AXIS2_PLACEMENT_3D ( 'NONE', #94, #108, #81 ) ;
#107 = AXIS2_PLACEMENT_3D ( 'NONE', #128, #125, #111 ) ;
#108 = DIRECTION ( 'NONE',  ( 0.0000000000000000000, 0.0000000000000000000, 1.000000000000000000 ) ) ;
#109 = CARTESIAN_POINT ( 'NONE',  ( -0.1290000000000000300, 0.0000000000000000000, 9.000000000000000000 ) ) ;
#110 = DIRECTION ( 'NONE',  ( -0.0000000000000000000, -0.0000000000000000000, -1.000000000000000000 ) ) ;
#111 = DIRECTION ( 'NONE',  ( 1.000000000000000000, 0.0000000000000000000, 0.0000000000000000000 ) ) ;
#112 = APPLICATION_CONTEXT ( 'automotive_design' ) ;
#113 = PRESENTATION_STYLE_ASSIGNMENT (( #9 ) ) ;
#114 = AXIS2_PLACEMENT_3D ( 'NONE', #198, #196, #193 ) ;
#115 = AXIS2_PLACEMENT_3D ( 'NONE', #124, #140, #222 ) ;
#116 = CARTESIAN_POINT ( 'NONE',  ( 0.0000000000000000000, 0.0000000000000000000, 0.0000000000000000000 ) ) ;
#117 = SURFACE_STYLE_FILL_AREA ( #28 ) ;
#118 =( GEOMETRIC_REPRESENTATION_CONTEXT ( 3 ) GLOBAL_UNCERTAINTY_ASSIGNED_CONTEXT ( ( #14 ) ) GLOBAL_UNIT_ASSIGNED_CONTEXT ( ( #154, #103, #100 ) ) REPRESENTATION_CONTEXT ( 'NONE', 'WORKASPACE' ) );
#119 = DIRECTION ( 'NONE',  ( -0.0000000000000000000, -0.0000000000000000000, -1.000000000000000000 ) ) ;
#120 = LINE ( 'NONE', #8, #46 ) ;
#121 = PRESENTATION_LAYER_ASSIGNMENT (  '', '', ( #129 ) ) ;
#122 = DIRECTION ( 'NONE',  ( -1.000000000000000000, 0.0000000000000000000, 0.0000000000000000000 ) ) ;
#123 = ORIENTED_EDGE ( 'NONE', *, *, #135, .F. ) ;
#124 = CARTESIAN_POINT ( 'NONE',  ( 0.0000000000000000000, 0.0000000000000000000, 9.000000000000000000 ) ) ;
#125 = DIRECTION ( 'NONE',  ( 0.0000000000000000000, 0.0000000000000000000, 1.000000000000000000 ) ) ;
#126 = DIRECTION ( 'NONE',  ( -0.0000000000000000000, -0.0000000000000000000, -1.000000000000000000 ) ) ;
#127 = ORIENTED_EDGE ( 'NONE', *, *, #136, .F. ) ;
#128 = CARTESIAN_POINT ( 'NONE',  ( 0.0000000000000000000, 0.0000000000000000000, 9.000000000000000000 ) ) ;
#129 = STYLED_ITEM ( 'NONE', ( #113 ), #31 ) ;
#130 = ORIENTED_EDGE ( 'NONE', *, *, #138, .T. ) ;
#131 = EDGE_LOOP ( 'NONE', ( #127, #130, #133, #144 ) ) ;
#132 = PRODUCT ( '217-3311 Release', '217-3311 Release', '', ( #25 ) ) ;
#133 = ORIENTED_EDGE ( 'NONE', *, *, #141, .T. ) ;
#134 = DIMENSIONAL_EXPONENTS ( 1.000000000000000000, 0.0000000000000000000, 0.0000000000000000000, 0.0000000000000000000, 0.0000000000000000000, 0.0000000000000000000, 0.0000000000000000000 ) ;
#135 = EDGE_CURVE ( 'NONE', #162, #139, #69, .T. ) ;
#136 = EDGE_CURVE ( 'NONE', #33, #218, #57, .T. ) ;
#137 = EDGE_LOOP ( 'NONE', ( #175, #178 ) ) ;
#138 = EDGE_CURVE ( 'NONE', #33, #213, #120, .T. ) ;
#139 = VERTEX_POINT ( 'NONE', #221 ) ;
#140 = DIRECTION ( 'NONE',  ( 0.0000000000000000000, 0.0000000000000000000, 1.000000000000000000 ) ) ;
#141 = EDGE_CURVE ( 'NONE', #213, #190, #54, .T. ) ;
#142 = CARTESIAN_POINT ( 'NONE',  ( 0.0000000000000000000, 0.0000000000000000000, 9.000000000000000000 ) ) ;
#143 = DIRECTION ( 'NONE',  ( -1.000000000000000000, 0.0000000000000000000, 0.0000000000000000000 ) ) ;
#144 = ORIENTED_EDGE ( 'NONE', *, *, #151, .F. ) ;
#145 = DIRECTION ( 'NONE',  ( -1.000000000000000000, 0.0000000000000000000, 0.0000000000000000000 ) ) ;
#146 = DIRECTION ( 'NONE',  ( 1.000000000000000000, 0.0000000000000000000, 0.0000000000000000000 ) ) ;
#147 = ORIENTED_EDGE ( 'NONE', *, *, #155, .T. ) ;
#148 = CYLINDRICAL_SURFACE ( 'NONE', #105, 0.2490000000000000000 ) ;
#149 = ORIENTED_EDGE ( 'NONE', *, *, #177, .T. ) ;
#150 = ORIENTED_EDGE ( 'NONE', *, *, #136, .T. ) ;
#151 = EDGE_CURVE ( 'NONE', #218, #190, #42, .T. ) ;
#152 = LENGTH_MEASURE_WITH_UNIT ( LENGTH_MEASURE( 0.02539999999999999900 ), #41 );
#153 = ORIENTED_EDGE ( 'NONE', *, *, #177, .F. ) ;
#154 =( CONVERSION_BASED_UNIT ( 'INCH', #96 ) LENGTH_UNIT ( ) NAMED_UNIT ( #160 ) );
#155 = EDGE_CURVE ( 'NONE', #218, #33, #39, .T. ) ;
#156 = EDGE_CURVE ( 'NONE', #23, #162, #49, .T. ) ;
#157 = ORIENTED_EDGE ( 'NONE', *, *, #156, .F. ) ;
#158 = ORIENTED_EDGE ( 'NONE', *, *, #159, .F. ) ;
#159 = EDGE_CURVE ( 'NONE', #190, #213, #30, .T. ) ;
#160 = DIMENSIONAL_EXPONENTS ( 1.000000000000000000, 0.0000000000000000000, 0.0000000000000000000, 0.0000000000000000000, 0.0000000000000000000, 0.0000000000000000000, 0.0000000000000000000 ) ;
#161 = DIMENSIONAL_EXPONENTS ( 1.000000000000000000, 0.0000000000000000000, 0.0000000000000000000, 0.0000000000000000000, 0.0000000000000000000, 0.0000000000000000000, 0.0000000000000000000 ) ;
#162 = VERTEX_POINT ( 'NONE', #109 ) ;
#163 = DIRECTION ( 'NONE',  ( 0.0000000000000000000, 0.0000000000000000000, 1.000000000000000000 ) ) ;
#164 = EDGE_CURVE ( 'NONE', #202, #139, #21, .T. ) ;
#165 = EDGE_CURVE ( 'NONE', #139, #202, #26, .T. ) ;
#166 = ADVANCED_FACE ( 'NONE', ( #15 ), #50, .F. ) ;
#167 = CARTESIAN_POINT ( 'NONE',  ( 0.0000000000000000000, 0.0000000000000000000, -9.000000000000000000 ) ) ;
#168 = ORIENTED_EDGE ( 'NONE', *, *, #141, .F. ) ;
#169 = CARTESIAN_POINT ( 'NONE',  ( 0.0000000000000000000, 0.0000000000000000000, 9.000000000000000000 ) ) ;
#170 = ADVANCED_FACE ( 'NONE', ( #12 ), #192, .F. ) ;
#171 = ADVANCED_FACE ( 'NONE', ( #3 ), #148, .T. ) ;
#172 = ADVANCED_FACE ( 'NONE', ( #5, #68 ), #92, .F. ) ;
#173 = ADVANCED_FACE ( 'NONE', ( #6, #89 ), #79, .T. ) ;
#174 = SURFACE_STYLE_USAGE ( .BOTH. , #24 ) ;
#175 = ORIENTED_EDGE ( 'NONE', *, *, #165, .T. ) ;
#176 = ADVANCED_FACE ( 'NONE', ( #90 ), #77, .T. ) ;
#177 = EDGE_CURVE ( 'NONE', #162, #23, #70, .T. ) ;
#178 = ORIENTED_EDGE ( 'NONE', *, *, #164, .T. ) ;
#179 = ORIENTED_EDGE ( 'NONE', *, *, #138, .F. ) ;
#180 = DIRECTION ( 'NONE',  ( 1.000000000000000000, 0.0000000000000000000, 0.0000000000000000000 ) ) ;
#181 = DIRECTION ( 'NONE',  ( 0.0000000000000000000, 0.0000000000000000000, 1.000000000000000000 ) ) ;
#182 = CARTESIAN_POINT ( 'NONE',  ( 0.0000000000000000000, 0.0000000000000000000, -9.000000000000000000 ) ) ;
#183 = DIRECTION ( 'NONE',  ( -0.0000000000000000000, -0.0000000000000000000, -1.000000000000000000 ) ) ;
#184 = ORIENTED_EDGE ( 'NONE', *, *, #71, .T. ) ;
#185 = ADVANCED_BREP_SHAPE_REPRESENTATION ( '217-3311 Release', ( #31, #212 ), #56 ) ;
#186 = ORIENTED_EDGE ( 'NONE', *, *, #155, .F. ) ;
#187 = APPLICATION_PROTOCOL_DEFINITION ( 'draft international standard', 'automotive_design', 1998, #73 ) ;
#188 = ORIENTED_EDGE ( 'NONE', *, *, #151, .T. ) ;
#189 = ORIENTED_EDGE ( 'NONE', *, *, #159, .T. ) ;
#190 = VERTEX_POINT ( 'NONE', #37 ) ;
#191 = ORIENTED_EDGE ( 'NONE', *, *, #71, .F. ) ;
#192 = CYLINDRICAL_SURFACE ( 'NONE', #32, 0.1290000000000000300 ) ;
#193 = DIRECTION ( 'NONE',  ( 1.000000000000000000, 0.0000000000000000000, 0.0000000000000000000 ) ) ;
#194 = CARTESIAN_POINT ( 'NONE',  ( 0.0000000000000000000, 0.0000000000000000000, 9.000000000000000000 ) ) ;
#195 = ORIENTED_EDGE ( 'NONE', *, *, #156, .T. ) ;
#196 = DIRECTION ( 'NONE',  ( 0.0000000000000000000, 0.0000000000000000000, 1.000000000000000000 ) ) ;
#197 = SHAPE_DEFINITION_REPRESENTATION ( #83, #185 ) ;
#198 = CARTESIAN_POINT ( 'NONE',  ( 0.0000000000000000000, 0.0000000000000000000, -9.000000000000000000 ) ) ;
#199 = ORIENTED_EDGE ( 'NONE', *, *, #135, .T. ) ;
#200 = ORIENTED_EDGE ( 'NONE', *, *, #164, .F. ) ;
#201 =( NAMED_UNIT ( * ) SI_UNIT ( $, .STERADIAN. ) SOLID_ANGLE_UNIT ( ) );
#202 = VERTEX_POINT ( 'NONE', #38 ) ;
#203 =( NAMED_UNIT ( * ) SI_UNIT ( $, .STERADIAN. ) SOLID_ANGLE_UNIT ( ) );
#204 =( LENGTH_UNIT ( ) NAMED_UNIT ( * ) SI_UNIT ( $, .METRE. ) );
#205 =( LENGTH_UNIT ( ) NAMED_UNIT ( * ) SI_UNIT ( $, .METRE. ) );
#206 = PRODUCT_RELATED_PRODUCT_CATEGORY ( 'part', '', ( #132 ) ) ;
#207 = EDGE_LOOP ( 'NONE', ( #153, #157 ) ) ;
#208 = PRODUCT_DEFINITION_FORMATION_WITH_SPECIFIED_SOURCE ( 'ANY', '', #132, .NOT_KNOWN. ) ;
#209 = EDGE_LOOP ( 'NONE', ( #147, #150 ) ) ;
#210 = DIRECTION ( 'NONE',  ( 0.0000000000000000000, 0.0000000000000000000, 1.000000000000000000 ) ) ;
#211 = PRODUCT_DEFINITION ( 'UNKNOWN', '', #208, #48 ) ;
#212 = AXIS2_PLACEMENT_3D ( 'NONE', #116, #43, #85 ) ;
#213 = VERTEX_POINT ( 'NONE', #16 ) ;
#214 = EDGE_LOOP ( 'NONE', ( #158, #168 ) ) ;
#215 = EDGE_LOOP ( 'NONE', ( #179, #186, #188, #189 ) ) ;
#216 = FILL_AREA_STYLE ('',( #36 ) ) ;
#217 = CARTESIAN_POINT ( 'NONE',  ( 0.2490000000000000000, 3.049370529876909500E-017, 9.000000000000000000 ) ) ;
#218 = VERTEX_POINT ( 'NONE', #2 ) ;
#219 =( GEOMETRIC_REPRESENTATION_CONTEXT ( 3 ) GLOBAL_UNCERTAINTY_ASSIGNED_CONTEXT ( ( #45 ) ) GLOBAL_UNIT_ASSIGNED_CONTEXT ( ( #82, #99, #203 ) ) REPRESENTATION_CONTEXT ( 'NONE', 'WORKASPACE' ) );
#220 = EDGE_LOOP ( 'NONE', ( #149, #184, #84, #123 ) ) ;
#221 = CARTESIAN_POINT ( 'NONE',  ( -0.1290000000000000300, 0.0000000000000000000, -9.000000000000000000 ) ) ;
#222 = DIRECTION ( 'NONE',  ( 1.000000000000000000, 0.0000000000000000000, 0.0000000000000000000 ) ) ;
#223 = EDGE_LOOP ( 'NONE', ( #191, #195, #199, #200 ) ) ;
ENDSEC;
END-ISO-10303-21;
