ISO-10303-21;
HEADER;
FILE_DESCRIPTION (( 'STEP AP214' ),
    '1' );
FILE_NAME ('217-3265-STEP.STEP',
    '2013-12-06T21:11:26',
    ( '' ),
    ( '' ),
    'SwSTEP 2.0',
    'SolidWorks 2013',
    '' );
FILE_SCHEMA (( 'AUTOMOTIVE_DESIGN' ));
ENDSEC;

DATA;
#1 = CIRCLE ( 'NONE', #76, 0.3838582677165354200 ) ;
#2 = CARTESIAN_POINT ( 'NONE',  ( 0.0000000000000000000, 0.0000000000000000000, 1.000000000000000000 ) ) ;
#3 = VERTEX_POINT ( 'NONE', #307 ) ;
#4 = EDGE_LOOP ( 'NONE', ( #271, #126 ) ) ;
#5 = CARTESIAN_POINT ( 'NONE',  ( -0.1472243186433545600, -0.2550000000000000000, 1.000000000000000000 ) ) ;
#6 = AXIS2_PLACEMENT_3D ( 'NONE', #74, #112, #303 ) ;
#7 = DIRECTION ( 'NONE',  ( 0.0000000000000000000, 0.0000000000000000000, 1.000000000000000000 ) ) ;
#8 = CARTESIAN_POINT ( 'NONE',  ( 0.2944486372867092200, 1.028089255413782600E-017, 1.000000000000000000 ) ) ;
#9 = ORIENTED_EDGE ( 'NONE', *, *, #142, .F. ) ;
#10 = ORIENTED_EDGE ( 'NONE', *, *, #204, .F. ) ;
#11 = CARTESIAN_POINT ( 'NONE',  ( -0.1472243186433545600, -0.2550000000000000000, 1.000000000000000000 ) ) ;
#12 = AXIS2_PLACEMENT_3D ( 'NONE', #213, #31, #236 ) ;
#13 = PRODUCT_DEFINITION_CONTEXT ( 'detailed design', #327, 'design' ) ;
#14 = ORIENTED_EDGE ( 'NONE', *, *, #217, .F. ) ;
#15 = LINE ( 'NONE', #301, #96 ) ;
#16 = COLOUR_RGB ( '',0.4941176470588235500, 0.4941176470588235500, 0.4941176470588235500 ) ;
#17 = ORIENTED_EDGE ( 'NONE', *, *, #142, .T. ) ;
#18 = DIRECTION ( 'NONE',  ( 1.000000000000000000, 0.0000000000000000000, 0.0000000000000000000 ) ) ;
#19 = VECTOR ( 'NONE', #180, 39.37007874015748100 ) ;
#20 = FACE_OUTER_BOUND ( 'NONE', #189, .T. ) ;
#21 = ORIENTED_EDGE ( 'NONE', *, *, #177, .T. ) ;
#22 = CARTESIAN_POINT ( 'NONE',  ( 0.1472243186433546100, -0.2550000000000000000, 1.000000000000000000 ) ) ;
#23 =( GEOMETRIC_REPRESENTATION_CONTEXT ( 3 ) GLOBAL_UNCERTAINTY_ASSIGNED_CONTEXT ( ( #187 ) ) GLOBAL_UNIT_ASSIGNED_CONTEXT ( ( #56, #248, #89 ) ) REPRESENTATION_CONTEXT ( 'NONE', 'WORKASPACE' ) );
#24 = ORIENTED_EDGE ( 'NONE', *, *, #171, .F. ) ;
#25 = COLOUR_RGB ( '',0.4941176470588235500, 0.4941176470588235500, 0.4941176470588235500 ) ;
#26 = LINE ( 'NONE', #252, #326 ) ;
#27 = MECHANICAL_DESIGN_GEOMETRIC_PRESENTATION_REPRESENTATION (  '', ( #36 ), #23 ) ;
#28 = CIRCLE ( 'NONE', #12, 0.3838582677165354200 ) ;
#29 = ORIENTED_EDGE ( 'NONE', *, *, #245, .F. ) ;
#30 = ORIENTED_EDGE ( 'NONE', *, *, #199, .F. ) ;
#31 = DIRECTION ( 'NONE',  ( 0.0000000000000000000, 0.0000000000000000000, 1.000000000000000000 ) ) ;
#32 = PRESENTATION_LAYER_ASSIGNMENT (  '', '', ( #36 ) ) ;
#33 = PLANE ( 'NONE',  #80 ) ;
#34 = LINE ( 'NONE', #312, #83 ) ;
#35 = CARTESIAN_POINT ( 'NONE',  ( 0.1472243186433546100, -0.2550000000000000000, 1.000000000000000000 ) ) ;
#36 = STYLED_ITEM ( 'NONE', ( #306 ), #237 ) ;
#37 = ORIENTED_EDGE ( 'NONE', *, *, #165, .F. ) ;
#38 = EDGE_LOOP ( 'NONE', ( #181, #17, #333, #347, #341, #298 ) ) ;
#39 = DIRECTION ( 'NONE',  ( -0.0000000000000000000, -0.0000000000000000000, -1.000000000000000000 ) ) ;
#40 = DIRECTION ( 'NONE',  ( 0.5000000000000001100, -0.8660254037844384900, 0.0000000000000000000 ) ) ;
#41 = AXIS2_PLACEMENT_3D ( 'NONE', #317, #339, #137 ) ;
#42 = VECTOR ( 'NONE', #115, 39.37007874015748900 ) ;
#43 = CARTESIAN_POINT ( 'NONE',  ( 0.1472243186433546100, -0.2550000000000000000, 1.000000000000000000 ) ) ;
#44 = ADVANCED_FACE ( 'NONE', ( #192 ), #107, .T. ) ;
#45 = LINE ( 'NONE', #246, #65 ) ;
#46 = CARTESIAN_POINT ( 'NONE',  ( -0.2944486372867092200, 2.527242374660742700E-017, 1.000000000000000000 ) ) ;
#47 = AXIS2_PLACEMENT_3D ( 'NONE', #261, #39, #240 ) ;
#48 = VERTEX_POINT ( 'NONE', #342 ) ;
#49 = CYLINDRICAL_SURFACE ( 'NONE', #41, 0.3838582677165354200 ) ;
#50 = PLANE ( 'NONE',  #61 ) ;
#51 = UNCERTAINTY_MEASURE_WITH_UNIT (LENGTH_MEASURE( 1.000000000000000100E-005 ), #292, 'distance_accuracy_value', 'NONE');
#52 = CARTESIAN_POINT ( 'NONE',  ( 0.1472243186433544700, 0.2550000000000001700, 1.000000000000000000 ) ) ;
#53 = DIRECTION ( 'NONE',  ( -0.4999999999999998900, -0.8660254037844386000, 0.0000000000000000000 ) ) ;
#54 = ORIENTED_EDGE ( 'NONE', *, *, #211, .T. ) ;
#55 = AXIS2_PLACEMENT_3D ( 'NONE', #194, #7, #218 ) ;
#56 =( CONVERSION_BASED_UNIT ( 'INCH', #233 ) LENGTH_UNIT ( ) NAMED_UNIT ( #280 ) );
#57 = FILL_AREA_STYLE_COLOUR ( '', #16 ) ;
#58 =( GEOMETRIC_REPRESENTATION_CONTEXT ( 3 ) GLOBAL_UNCERTAINTY_ASSIGNED_CONTEXT ( ( #337 ) ) GLOBAL_UNIT_ASSIGNED_CONTEXT ( ( #262, #226, #176 ) ) REPRESENTATION_CONTEXT ( 'NONE', 'WORKASPACE' ) );
#59 = ORIENTED_EDGE ( 'NONE', *, *, #215, .T. ) ;
#60 = SURFACE_STYLE_FILL_AREA ( #243 ) ;
#61 = AXIS2_PLACEMENT_3D ( 'NONE', #297, #345, #202 ) ;
#62 = CARTESIAN_POINT ( 'NONE',  ( 0.1472243186433544700, 0.2550000000000001700, -1.000000000000000000 ) ) ;
#63 = FACE_OUTER_BOUND ( 'NONE', #266, .T. ) ;
#64 = VERTEX_POINT ( 'NONE', #221 ) ;
#65 = VECTOR ( 'NONE', #85, 39.37007874015748100 ) ;
#66 = DIRECTION ( 'NONE',  ( 0.0000000000000000000, 0.0000000000000000000, 1.000000000000000000 ) ) ;
#67 = CARTESIAN_POINT ( 'NONE',  ( 0.1472243186433544700, 0.2550000000000001700, 1.000000000000000000 ) ) ;
#68 = PLANE ( 'NONE',  #55 ) ;
#69 = FACE_OUTER_BOUND ( 'NONE', #305, .T. ) ;
#70 = AXIS2_PLACEMENT_3D ( 'NONE', #35, #228, #224 ) ;
#71 = FACE_BOUND ( 'NONE', #38, .T. ) ;
#72 = VECTOR ( 'NONE', #191, 39.37007874015748100 ) ;
#73 = CARTESIAN_POINT ( 'NONE',  ( -0.1472243186433546400, 0.2550000000000000600, 1.000000000000000000 ) ) ;
#74 = CARTESIAN_POINT ( 'NONE',  ( 0.0000000000000000000, 0.0000000000000000000, 0.0000000000000000000 ) ) ;
#75 = SURFACE_SIDE_STYLE ('',( #60 ) ) ;
#76 = AXIS2_PLACEMENT_3D ( 'NONE', #144, #322, #173 ) ;
#77 = VECTOR ( 'NONE', #94, 39.37007874015748100 ) ;
#78 = PRODUCT_RELATED_PRODUCT_CATEGORY ( 'part', '', ( #201 ) ) ;
#79 = VECTOR ( 'NONE', #257, 39.37007874015748100 ) ;
#80 = AXIS2_PLACEMENT_3D ( 'NONE', #2, #66, #256 ) ;
#81 = VERTEX_POINT ( 'NONE', #293 ) ;
#82 = AXIS2_PLACEMENT_3D ( 'NONE', #100, #283, #133 ) ;
#83 = VECTOR ( 'NONE', #164, 39.37007874015748900 ) ;
#84 = CARTESIAN_POINT ( 'NONE',  ( 0.3838582677165354200, 4.700907988853029100E-017, 1.000000000000000000 ) ) ;
#85 = DIRECTION ( 'NONE',  ( 0.5000000000000001100, -0.8660254037844386000, 0.0000000000000000000 ) ) ;
#86 = AXIS2_PLACEMENT_3D ( 'NONE', #8, #219, #40 ) ;
#87 = CARTESIAN_POINT ( 'NONE',  ( -0.1472243186433546400, 0.2550000000000000600, -1.000000000000000000 ) ) ;
#88 = LINE ( 'NONE', #328, #19 ) ;
#89 =( NAMED_UNIT ( * ) SI_UNIT ( $, .STERADIAN. ) SOLID_ANGLE_UNIT ( ) );
#90 = SURFACE_SIDE_STYLE ('',( #334 ) ) ;
#91 = ORIENTED_EDGE ( 'NONE', *, *, #225, .T. ) ;
#92 = AXIS2_PLACEMENT_3D ( 'NONE', #279, #128, #311 ) ;
#93 = AXIS2_PLACEMENT_3D ( 'NONE', #11, #285, #135 ) ;
#94 = DIRECTION ( 'NONE',  ( -1.000000000000000000, -3.479190826162944300E-016, 0.0000000000000000000 ) ) ;
#95 = VECTOR ( 'NONE', #231, 39.37007874015748900 ) ;
#96 = VECTOR ( 'NONE', #53, 39.37007874015748900 ) ;
#97 = CARTESIAN_POINT ( 'NONE',  ( -0.1472243186433546400, 0.2550000000000000600, 1.000000000000000000 ) ) ;
#98 = CARTESIAN_POINT ( 'NONE',  ( -0.3838582677165354200, 0.0000000000000000000, 1.000000000000000000 ) ) ;
#99 = MANIFOLD_SOLID_BREP ( 'Boss-Extrude1', #113 ) ;
#100 = CARTESIAN_POINT ( 'NONE',  ( 0.0000000000000000000, 0.0000000000000000000, -1.000000000000000000 ) ) ;
#101 = VECTOR ( 'NONE', #18, 39.37007874015748100 ) ;
#102 = ADVANCED_FACE ( 'NONE', ( #196 ), #255, .T. ) ;
#103 = AXIS2_PLACEMENT_3D ( 'NONE', #97, #278, #127 ) ;
#104 = LINE ( 'NONE', #62, #77 ) ;
#105 =( LENGTH_UNIT ( ) NAMED_UNIT ( * ) SI_UNIT ( $, .METRE. ) );
#106 = VECTOR ( 'NONE', #205, 39.37007874015748100 ) ;
#107 = PLANE ( 'NONE',  #129 ) ;
#108 = CARTESIAN_POINT ( 'NONE',  ( -0.1472243186433546400, 0.2550000000000000600, 1.000000000000000000 ) ) ;
#109 = VECTOR ( 'NONE', #329, 39.37007874015748900 ) ;
#110 = CIRCLE ( 'NONE', #92, 0.3838582677165354200 ) ;
#111 = VERTEX_POINT ( 'NONE', #234 ) ;
#112 = DIRECTION ( 'NONE',  ( 0.0000000000000000000, 0.0000000000000000000, 1.000000000000000000 ) ) ;
#113 = CLOSED_SHELL ( 'NONE', ( #332, #260, #313, #338, #132, #286, #136, #291, #102, #44 ) ) ;
#114 = FACE_OUTER_BOUND ( 'NONE', #294, .T. ) ;
#115 = DIRECTION ( 'NONE',  ( -0.4999999999999998900, -0.8660254037844386000, 0.0000000000000000000 ) ) ;
#116 =( LENGTH_UNIT ( ) NAMED_UNIT ( * ) SI_UNIT ( $, .METRE. ) );
#117 = PRODUCT_DEFINITION_SHAPE ( 'NONE', 'NONE',  #125 ) ;
#118 =( GEOMETRIC_REPRESENTATION_CONTEXT ( 3 ) GLOBAL_UNCERTAINTY_ASSIGNED_CONTEXT ( ( #51 ) ) GLOBAL_UNIT_ASSIGNED_CONTEXT ( ( #292, #138, #212 ) ) REPRESENTATION_CONTEXT ( 'NONE', 'WORKASPACE' ) );
#119 = MECHANICAL_DESIGN_GEOMETRIC_PRESENTATION_REPRESENTATION (  '', ( #131 ), #118 ) ;
#120 = ORIENTED_EDGE ( 'NONE', *, *, #143, .F. ) ;
#121 = ORIENTED_EDGE ( 'NONE', *, *, #277, .T. ) ;
#122 = LINE ( 'NONE', #209, #95 ) ;
#123 = PRESENTATION_LAYER_ASSIGNMENT (  '', '', ( #131 ) ) ;
#124 = VECTOR ( 'NONE', #190, 39.37007874015748900 ) ;
#125 = PRODUCT_DEFINITION ( 'UNKNOWN', '', #325, #13 ) ;
#126 = ORIENTED_EDGE ( 'NONE', *, *, #245, .T. ) ;
#127 = DIRECTION ( 'NONE',  ( 0.4999999999999998900, 0.8660254037844386000, 0.0000000000000000000 ) ) ;
#128 = DIRECTION ( 'NONE',  ( 0.0000000000000000000, 0.0000000000000000000, 1.000000000000000000 ) ) ;
#129 = AXIS2_PLACEMENT_3D ( 'NONE', #46, #320, #141 ) ;
#130 = CARTESIAN_POINT ( 'NONE',  ( -0.2944486372867092800, 1.707404996040164500E-017, 1.000000000000000000 ) ) ;
#131 = STYLED_ITEM ( 'NONE', ( #148 ), #99 ) ;
#132 = ADVANCED_FACE ( 'NONE', ( #175 ), #310, .T. ) ;
#133 = DIRECTION ( 'NONE',  ( 1.000000000000000000, 0.0000000000000000000, 0.0000000000000000000 ) ) ;
#134 = SHAPE_DEFINITION_REPRESENTATION ( #117, #237 ) ;
#135 = DIRECTION ( 'NONE',  ( 0.0000000000000000000, -0.0000000000000000000, 1.000000000000000000 ) ) ;
#136 = ADVANCED_FACE ( 'NONE', ( #69 ), #195, .T. ) ;
#137 = DIRECTION ( 'NONE',  ( -1.000000000000000000, 0.0000000000000000000, 0.0000000000000000000 ) ) ;
#138 =( NAMED_UNIT ( * ) PLANE_ANGLE_UNIT ( ) SI_UNIT ( $, .RADIAN. ) );
#139 = ORIENTED_EDGE ( 'NONE', *, *, #232, .T. ) ;
#140 = EDGE_CURVE ( 'NONE', #185, #111, #157, .T. ) ;
#141 = DIRECTION ( 'NONE',  ( -0.5000000000000001100, 0.8660254037844386000, 0.0000000000000000000 ) ) ;
#142 = EDGE_CURVE ( 'NONE', #111, #267, #186, .T. ) ;
#143 = EDGE_CURVE ( 'NONE', #267, #348, #122, .T. ) ;
#144 = CARTESIAN_POINT ( 'NONE',  ( 0.0000000000000000000, 0.0000000000000000000, 1.000000000000000000 ) ) ;
#145 = EDGE_CURVE ( 'NONE', #348, #193, #104, .T. ) ;
#146 = DIRECTION ( 'NONE',  ( -0.0000000000000000000, -0.0000000000000000000, -1.000000000000000000 ) ) ;
#147 = ORIENTED_EDGE ( 'NONE', *, *, #264, .T. ) ;
#148 = PRESENTATION_STYLE_ASSIGNMENT (( #263 ) ) ;
#149 = PRODUCT_CONTEXT ( 'NONE', #229, 'mechanical' ) ;
#150 = LINE ( 'NONE', #315, #42 ) ;
#151 = EDGE_CURVE ( 'NONE', #193, #344, #150, .T. ) ;
#152 = ORIENTED_EDGE ( 'NONE', *, *, #302, .T. ) ;
#153 = ORIENTED_EDGE ( 'NONE', *, *, #215, .F. ) ;
#154 = DIRECTION ( 'NONE',  ( -0.0000000000000000000, -0.0000000000000000000, -1.000000000000000000 ) ) ;
#155 = ORIENTED_EDGE ( 'NONE', *, *, #210, .T. ) ;
#156 = ORIENTED_EDGE ( 'NONE', *, *, #199, .T. ) ;
#157 = LINE ( 'NONE', #241, #169 ) ;
#158 = DIMENSIONAL_EXPONENTS ( 1.000000000000000000, 0.0000000000000000000, 0.0000000000000000000, 0.0000000000000000000, 0.0000000000000000000, 0.0000000000000000000, 0.0000000000000000000 ) ;
#159 = CARTESIAN_POINT ( 'NONE',  ( 0.1472243186433546100, -0.2550000000000000000, -1.000000000000000000 ) ) ;
#160 = LINE ( 'NONE', #67, #79 ) ;
#161 = CARTESIAN_POINT ( 'NONE',  ( 0.3838582677165354200, 4.700907988853029100E-017, 1.000000000000000000 ) ) ;
#162 = ORIENTED_EDGE ( 'NONE', *, *, #211, .F. ) ;
#163 = DIMENSIONAL_EXPONENTS ( 1.000000000000000000, 0.0000000000000000000, 0.0000000000000000000, 0.0000000000000000000, 0.0000000000000000000, 0.0000000000000000000, 0.0000000000000000000 ) ;
#164 = DIRECTION ( 'NONE',  ( 0.5000000000000000000, 0.8660254037844386000, 0.0000000000000000000 ) ) ;
#165 = EDGE_CURVE ( 'NONE', #344, #185, #88, .T. ) ;
#166 = EDGE_LOOP ( 'NONE', ( #216, #254, #330, #309, #290, #14 ) ) ;
#167 = EDGE_LOOP ( 'NONE', ( #170, #24, #152, #21 ) ) ;
#168 = ORIENTED_EDGE ( 'NONE', *, *, #182, .T. ) ;
#169 = VECTOR ( 'NONE', #335, 39.37007874015748100 ) ;
#170 = ORIENTED_EDGE ( 'NONE', *, *, #140, .F. ) ;
#171 = EDGE_CURVE ( 'NONE', #282, #185, #26, .T. ) ;
#172 = ORIENTED_EDGE ( 'NONE', *, *, #277, .F. ) ;
#173 = DIRECTION ( 'NONE',  ( 1.000000000000000000, 0.0000000000000000000, 0.0000000000000000000 ) ) ;
#174 = FILL_AREA_STYLE_COLOUR ( '', #25 ) ;
#175 = FACE_OUTER_BOUND ( 'NONE', #167, .T. ) ;
#176 =( NAMED_UNIT ( * ) SI_UNIT ( $, .STERADIAN. ) SOLID_ANGLE_UNIT ( ) );
#177 = EDGE_CURVE ( 'NONE', #343, #111, #304, .T. ) ;
#178 = APPLICATION_PROTOCOL_DEFINITION ( 'draft international standard', 'automotive_design', 1998, #327 ) ;
#179 = VECTOR ( 'NONE', #331, 39.37007874015748100 ) ;
#180 = DIRECTION ( 'NONE',  ( 0.5000000000000001100, -0.8660254037844386000, 0.0000000000000000000 ) ) ;
#181 = ORIENTED_EDGE ( 'NONE', *, *, #140, .T. ) ;
#182 = EDGE_CURVE ( 'NONE', #64, #267, #318, .T. ) ;
#183 = EDGE_LOOP ( 'NONE', ( #258, #184, #155, #259 ) ) ;
#184 = ORIENTED_EDGE ( 'NONE', *, *, #200, .F. ) ;
#185 = VERTEX_POINT ( 'NONE', #269 ) ;
#186 = LINE ( 'NONE', #159, #109 ) ;
#187 = UNCERTAINTY_MEASURE_WITH_UNIT (LENGTH_MEASURE( 1.000000000000000100E-005 ), #56, 'distance_accuracy_value', 'NONE');
#188 = CIRCLE ( 'NONE', #82, 0.3838582677165354200 ) ;
#189 = EDGE_LOOP ( 'NONE', ( #162, #316 ) ) ;
#190 = DIRECTION ( 'NONE',  ( -0.5000000000000001100, 0.8660254037844384900, 0.0000000000000000000 ) ) ;
#191 = DIRECTION ( 'NONE',  ( -0.0000000000000000000, -0.0000000000000000000, -1.000000000000000000 ) ) ;
#192 = FACE_OUTER_BOUND ( 'NONE', #289, .T. ) ;
#193 = VERTEX_POINT ( 'NONE', #87 ) ;
#194 = CARTESIAN_POINT ( 'NONE',  ( 0.0000000000000000000, 0.0000000000000000000, -1.000000000000000000 ) ) ;
#195 = PLANE ( 'NONE',  #86 ) ;
#196 = FACE_OUTER_BOUND ( 'NONE', #183, .T. ) ;
#197 = LINE ( 'NONE', #235, #124 ) ;
#198 = ORIENTED_EDGE ( 'NONE', *, *, #171, .T. ) ;
#199 = EDGE_CURVE ( 'NONE', #314, #348, #308, .T. ) ;
#200 = EDGE_CURVE ( 'NONE', #319, #193, #253, .T. ) ;
#201 = PRODUCT ( '217-3265-STEP', '217-3265-STEP', '', ( #149 ) ) ;
#202 = DIRECTION ( 'NONE',  ( 1.000000000000000000, 3.479190826162944300E-016, 0.0000000000000000000 ) ) ;
#203 = CARTESIAN_POINT ( 'NONE',  ( -0.2944486372867092200, 2.527242374660742700E-017, 1.000000000000000000 ) ) ;
#204 = EDGE_CURVE ( 'NONE', #270, #344, #239, .T. ) ;
#205 = DIRECTION ( 'NONE',  ( -0.0000000000000000000, -0.0000000000000000000, -1.000000000000000000 ) ) ;
#206 = LINE ( 'NONE', #98, #179 ) ;
#207 = APPLICATION_PROTOCOL_DEFINITION ( 'draft international standard', 'automotive_design', 1998, #229 ) ;
#208 = CYLINDRICAL_SURFACE ( 'NONE', #47, 0.3838582677165354200 ) ;
#209 = CARTESIAN_POINT ( 'NONE',  ( 0.2944486372867092200, 1.028089255413782600E-017, -1.000000000000000000 ) ) ;
#210 = EDGE_CURVE ( 'NONE', #319, #270, #15, .T. ) ;
#211 = EDGE_CURVE ( 'NONE', #81, #48, #110, .T. ) ;
#212 =( NAMED_UNIT ( * ) SI_UNIT ( $, .STERADIAN. ) SOLID_ANGLE_UNIT ( ) );
#213 = CARTESIAN_POINT ( 'NONE',  ( 0.0000000000000000000, 0.0000000000000000000, 1.000000000000000000 ) ) ;
#214 = PLANE ( 'NONE',  #70 ) ;
#215 = EDGE_CURVE ( 'NONE', #3, #81, #206, .T. ) ;
#216 = ORIENTED_EDGE ( 'NONE', *, *, #264, .F. ) ;
#217 = EDGE_CURVE ( 'NONE', #64, #314, #197, .T. ) ;
#218 = DIRECTION ( 'NONE',  ( 1.000000000000000000, 0.0000000000000000000, -0.0000000000000000000 ) ) ;
#219 = DIRECTION ( 'NONE',  ( -0.8660254037844386000, -0.5000000000000002200, 0.0000000000000000000 ) ) ;
#220 =( LENGTH_UNIT ( ) NAMED_UNIT ( * ) SI_UNIT ( $, .METRE. ) );
#221 = CARTESIAN_POINT ( 'NONE',  ( 0.2944486372867092200, 1.028089255413782600E-017, 1.000000000000000000 ) ) ;
#222 = FACE_OUTER_BOUND ( 'NONE', #4, .T. ) ;
#223 = ORIENTED_EDGE ( 'NONE', *, *, #287, .F. ) ;
#224 = DIRECTION ( 'NONE',  ( -0.5000000000000000000, -0.8660254037844386000, 0.0000000000000000000 ) ) ;
#225 = EDGE_CURVE ( 'NONE', #48, #81, #188, .T. ) ;
#226 =( NAMED_UNIT ( * ) PLANE_ANGLE_UNIT ( ) SI_UNIT ( $, .RADIAN. ) );
#227 = ORIENTED_EDGE ( 'NONE', *, *, #296, .T. ) ;
#228 = DIRECTION ( 'NONE',  ( -0.8660254037844387100, 0.5000000000000001100, 0.0000000000000000000 ) ) ;
#229 = APPLICATION_CONTEXT ( 'automotive_design' ) ;
#230 = VECTOR ( 'NONE', #146, 39.37007874015748100 ) ;
#231 = DIRECTION ( 'NONE',  ( -0.5000000000000001100, 0.8660254037844384900, 0.0000000000000000000 ) ) ;
#232 = EDGE_CURVE ( 'NONE', #314, #319, #160, .T. ) ;
#233 = LENGTH_MEASURE_WITH_UNIT ( LENGTH_MEASURE( 0.02539999999999999900 ), #116 );
#234 = CARTESIAN_POINT ( 'NONE',  ( 0.1472243186433546100, -0.2550000000000000000, -1.000000000000000000 ) ) ;
#235 = CARTESIAN_POINT ( 'NONE',  ( 0.2944486372867092200, 1.028089255413782600E-017, 1.000000000000000000 ) ) ;
#236 = DIRECTION ( 'NONE',  ( 1.000000000000000000, 0.0000000000000000000, 0.0000000000000000000 ) ) ;
#237 = ADVANCED_BREP_SHAPE_REPRESENTATION ( '217-3265-STEP', ( #99, #6 ), #58 ) ;
#238 = FACE_BOUND ( 'NONE', #166, .T. ) ;
#239 = LINE ( 'NONE', #203, #106 ) ;
#240 = DIRECTION ( 'NONE',  ( -1.000000000000000000, 0.0000000000000000000, 0.0000000000000000000 ) ) ;
#241 = CARTESIAN_POINT ( 'NONE',  ( -0.1472243186433545600, -0.2550000000000000000, -1.000000000000000000 ) ) ;
#242 = CARTESIAN_POINT ( 'NONE',  ( -0.2944486372867092200, 2.527242374660742700E-017, -1.000000000000000000 ) ) ;
#243 = FILL_AREA_STYLE ('',( #174 ) ) ;
#244 = VECTOR ( 'NONE', #324, 39.37007874015748100 ) ;
#245 = EDGE_CURVE ( 'NONE', #295, #3, #28, .T. ) ;
#246 = CARTESIAN_POINT ( 'NONE',  ( -0.2944486372867092200, 2.527242374660742700E-017, 1.000000000000000000 ) ) ;
#247 = DIRECTION ( 'NONE',  ( -0.0000000000000000000, -0.0000000000000000000, -1.000000000000000000 ) ) ;
#248 =( NAMED_UNIT ( * ) PLANE_ANGLE_UNIT ( ) SI_UNIT ( $, .RADIAN. ) );
#249 = VECTOR ( 'NONE', #247, 39.37007874015748100 ) ;
#250 = FILL_AREA_STYLE ('',( #57 ) ) ;
#251 = ORIENTED_EDGE ( 'NONE', *, *, #200, .T. ) ;
#252 = CARTESIAN_POINT ( 'NONE',  ( -0.1472243186433545600, -0.2550000000000000000, 1.000000000000000000 ) ) ;
#253 = LINE ( 'NONE', #108, #244 ) ;
#254 = ORIENTED_EDGE ( 'NONE', *, *, #302, .F. ) ;
#255 = PLANE ( 'NONE',  #103 ) ;
#256 = DIRECTION ( 'NONE',  ( 1.000000000000000000, 0.0000000000000000000, -0.0000000000000000000 ) ) ;
#257 = DIRECTION ( 'NONE',  ( -1.000000000000000000, -3.479190826162944300E-016, 0.0000000000000000000 ) ) ;
#258 = ORIENTED_EDGE ( 'NONE', *, *, #151, .F. ) ;
#259 = ORIENTED_EDGE ( 'NONE', *, *, #204, .T. ) ;
#260 = ADVANCED_FACE ( 'NONE', ( #222, #238 ), #33, .T. ) ;
#261 = CARTESIAN_POINT ( 'NONE',  ( 0.0000000000000000000, 0.0000000000000000000, 1.000000000000000000 ) ) ;
#262 =( CONVERSION_BASED_UNIT ( 'INCH', #321 ) LENGTH_UNIT ( ) NAMED_UNIT ( #158 ) );
#263 = SURFACE_STYLE_USAGE ( .BOTH. , #75 ) ;
#264 = EDGE_CURVE ( 'NONE', #343, #64, #34, .T. ) ;
#265 = VECTOR ( 'NONE', #350, 39.37007874015748100 ) ;
#266 = EDGE_LOOP ( 'NONE', ( #273, #30, #139, #251 ) ) ;
#267 = VERTEX_POINT ( 'NONE', #281 ) ;
#268 = CARTESIAN_POINT ( 'NONE',  ( -0.1472243186433545600, -0.2550000000000000000, 1.000000000000000000 ) ) ;
#269 = CARTESIAN_POINT ( 'NONE',  ( -0.1472243186433546400, -0.2550000000000000000, -1.000000000000000000 ) ) ;
#270 = VERTEX_POINT ( 'NONE', #130 ) ;
#271 = ORIENTED_EDGE ( 'NONE', *, *, #287, .T. ) ;
#272 = SURFACE_STYLE_USAGE ( .BOTH. , #90 ) ;
#273 = ORIENTED_EDGE ( 'NONE', *, *, #145, .F. ) ;
#274 = ORIENTED_EDGE ( 'NONE', *, *, #182, .F. ) ;
#275 = FACE_OUTER_BOUND ( 'NONE', #299, .T. ) ;
#276 = ORIENTED_EDGE ( 'NONE', *, *, #217, .T. ) ;
#277 = EDGE_CURVE ( 'NONE', #295, #48, #284, .T. ) ;
#278 = DIRECTION ( 'NONE',  ( 0.8660254037844387100, -0.4999999999999999400, 0.0000000000000000000 ) ) ;
#279 = CARTESIAN_POINT ( 'NONE',  ( 0.0000000000000000000, 0.0000000000000000000, -1.000000000000000000 ) ) ;
#280 = DIMENSIONAL_EXPONENTS ( 1.000000000000000000, 0.0000000000000000000, 0.0000000000000000000, 0.0000000000000000000, 0.0000000000000000000, 0.0000000000000000000, 0.0000000000000000000 ) ;
#281 = CARTESIAN_POINT ( 'NONE',  ( 0.2944486372867092200, 1.028089255413782600E-017, -1.000000000000000000 ) ) ;
#282 = VERTEX_POINT ( 'NONE', #5 ) ;
#283 = DIRECTION ( 'NONE',  ( 0.0000000000000000000, 0.0000000000000000000, 1.000000000000000000 ) ) ;
#284 = LINE ( 'NONE', #161, #72 ) ;
#285 = DIRECTION ( 'NONE',  ( 0.0000000000000000000, 1.000000000000000000, 0.0000000000000000000 ) ) ;
#286 = ADVANCED_FACE ( 'NONE', ( #349 ), #214, .T. ) ;
#287 = EDGE_CURVE ( 'NONE', #3, #295, #1, .T. ) ;
#288 = CARTESIAN_POINT ( 'NONE',  ( 0.1472243186433544700, 0.2550000000000001700, -1.000000000000000000 ) ) ;
#289 = EDGE_LOOP ( 'NONE', ( #37, #10, #227, #198 ) ) ;
#290 = ORIENTED_EDGE ( 'NONE', *, *, #232, .F. ) ;
#291 = ADVANCED_FACE ( 'NONE', ( #63 ), #50, .T. ) ;
#292 =( CONVERSION_BASED_UNIT ( 'INCH', #323 ) LENGTH_UNIT ( ) NAMED_UNIT ( #163 ) );
#293 = CARTESIAN_POINT ( 'NONE',  ( -0.3838582677165354200, 0.0000000000000000000, -1.000000000000000000 ) ) ;
#294 = EDGE_LOOP ( 'NONE', ( #29, #121, #91, #153 ) ) ;
#295 = VERTEX_POINT ( 'NONE', #84 ) ;
#296 = EDGE_CURVE ( 'NONE', #270, #282, #45, .T. ) ;
#297 = CARTESIAN_POINT ( 'NONE',  ( 0.1472243186433544700, 0.2550000000000001700, 1.000000000000000000 ) ) ;
#298 = ORIENTED_EDGE ( 'NONE', *, *, #165, .T. ) ;
#299 = EDGE_LOOP ( 'NONE', ( #172, #223, #59, #54 ) ) ;
#300 = CARTESIAN_POINT ( 'NONE',  ( 0.1472243186433544700, 0.2550000000000001700, 1.000000000000000000 ) ) ;
#301 = CARTESIAN_POINT ( 'NONE',  ( -0.1472243186433546400, 0.2550000000000000600, 1.000000000000000000 ) ) ;
#302 = EDGE_CURVE ( 'NONE', #282, #343, #336, .T. ) ;
#303 = DIRECTION ( 'NONE',  ( 1.000000000000000000, 0.0000000000000000000, 0.0000000000000000000 ) ) ;
#304 = LINE ( 'NONE', #22, #265 ) ;
#305 = EDGE_LOOP ( 'NONE', ( #120, #274, #276, #156 ) ) ;
#306 = PRESENTATION_STYLE_ASSIGNMENT (( #272 ) ) ;
#307 = CARTESIAN_POINT ( 'NONE',  ( -0.3838582677165354200, 0.0000000000000000000, 1.000000000000000000 ) ) ;
#308 = LINE ( 'NONE', #52, #230 ) ;
#309 = ORIENTED_EDGE ( 'NONE', *, *, #210, .F. ) ;
#310 = PLANE ( 'NONE',  #93 ) ;
#311 = DIRECTION ( 'NONE',  ( 1.000000000000000000, 0.0000000000000000000, 0.0000000000000000000 ) ) ;
#312 = CARTESIAN_POINT ( 'NONE',  ( 0.1472243186433546100, -0.2550000000000000000, 1.000000000000000000 ) ) ;
#313 = ADVANCED_FACE ( 'NONE', ( #20, #71 ), #68, .F. ) ;
#314 = VERTEX_POINT ( 'NONE', #300 ) ;
#315 = CARTESIAN_POINT ( 'NONE',  ( -0.1472243186433546400, 0.2550000000000000600, -1.000000000000000000 ) ) ;
#316 = ORIENTED_EDGE ( 'NONE', *, *, #225, .F. ) ;
#317 = CARTESIAN_POINT ( 'NONE',  ( 0.0000000000000000000, 0.0000000000000000000, 1.000000000000000000 ) ) ;
#318 = LINE ( 'NONE', #346, #249 ) ;
#319 = VERTEX_POINT ( 'NONE', #73 ) ;
#320 = DIRECTION ( 'NONE',  ( 0.8660254037844386000, 0.5000000000000001100, -0.0000000000000000000 ) ) ;
#321 = LENGTH_MEASURE_WITH_UNIT ( LENGTH_MEASURE( 0.02539999999999999900 ), #220 );
#322 = DIRECTION ( 'NONE',  ( 0.0000000000000000000, 0.0000000000000000000, 1.000000000000000000 ) ) ;
#323 = LENGTH_MEASURE_WITH_UNIT ( LENGTH_MEASURE( 0.02539999999999999900 ), #105 );
#324 = DIRECTION ( 'NONE',  ( -0.0000000000000000000, -0.0000000000000000000, -1.000000000000000000 ) ) ;
#325 = PRODUCT_DEFINITION_FORMATION_WITH_SPECIFIED_SOURCE ( 'ANY', '', #201, .NOT_KNOWN. ) ;
#326 = VECTOR ( 'NONE', #154, 39.37007874015748100 ) ;
#327 = APPLICATION_CONTEXT ( 'automotive_design' ) ;
#328 = CARTESIAN_POINT ( 'NONE',  ( -0.2944486372867092200, 2.527242374660742700E-017, -1.000000000000000000 ) ) ;
#329 = DIRECTION ( 'NONE',  ( 0.5000000000000000000, 0.8660254037844386000, 0.0000000000000000000 ) ) ;
#330 = ORIENTED_EDGE ( 'NONE', *, *, #296, .F. ) ;
#331 = DIRECTION ( 'NONE',  ( -0.0000000000000000000, -0.0000000000000000000, -1.000000000000000000 ) ) ;
#332 = ADVANCED_FACE ( 'NONE', ( #114 ), #208, .T. ) ;
#333 = ORIENTED_EDGE ( 'NONE', *, *, #143, .T. ) ;
#334 = SURFACE_STYLE_FILL_AREA ( #250 ) ;
#335 = DIRECTION ( 'NONE',  ( 1.000000000000000000, 0.0000000000000000000, 0.0000000000000000000 ) ) ;
#336 = LINE ( 'NONE', #268, #101 ) ;
#337 = UNCERTAINTY_MEASURE_WITH_UNIT (LENGTH_MEASURE( 1.000000000000000100E-005 ), #262, 'distance_accuracy_value', 'NONE');
#338 = ADVANCED_FACE ( 'NONE', ( #275 ), #49, .T. ) ;
#339 = DIRECTION ( 'NONE',  ( -0.0000000000000000000, -0.0000000000000000000, -1.000000000000000000 ) ) ;
#340 = ORIENTED_EDGE ( 'NONE', *, *, #177, .F. ) ;
#341 = ORIENTED_EDGE ( 'NONE', *, *, #151, .T. ) ;
#342 = CARTESIAN_POINT ( 'NONE',  ( 0.3838582677165354200, 4.700907988853029100E-017, -1.000000000000000000 ) ) ;
#343 = VERTEX_POINT ( 'NONE', #43 ) ;
#344 = VERTEX_POINT ( 'NONE', #242 ) ;
#345 = DIRECTION ( 'NONE',  ( 3.479190826162944300E-016, -1.000000000000000000, 0.0000000000000000000 ) ) ;
#346 = CARTESIAN_POINT ( 'NONE',  ( 0.2944486372867092200, 1.028089255413782600E-017, 1.000000000000000000 ) ) ;
#347 = ORIENTED_EDGE ( 'NONE', *, *, #145, .T. ) ;
#348 = VERTEX_POINT ( 'NONE', #288 ) ;
#349 = FACE_OUTER_BOUND ( 'NONE', #351, .T. ) ;
#350 = DIRECTION ( 'NONE',  ( -0.0000000000000000000, -0.0000000000000000000, -1.000000000000000000 ) ) ;
#351 = EDGE_LOOP ( 'NONE', ( #9, #340, #147, #168 ) ) ;
ENDSEC;
END-ISO-10303-21;
