ISO-10303-21;
HEADER;
FILE_DESCRIPTION (( 'STEP AP214' ),
    '1' );
FILE_NAME ('217-3263-STEP.STEP',
    '2013-12-06T21:10:12',
    ( '' ),
    ( '' ),
    'SwSTEP 2.0',
    'SolidWorks 2013',
    '' );
FILE_SCHEMA (( 'AUTOMOTIVE_DESIGN' ));
ENDSEC;

DATA;
#1 = ORIENTED_EDGE ( 'NONE', *, *, #293, .F. ) ;
#2 = VECTOR ( 'NONE', #319, 39.37007874015748900 ) ;
#3 = LINE ( 'NONE', #81, #62 ) ;
#4 = CARTESIAN_POINT ( 'NONE',  ( 0.0000000000000000000, 0.0000000000000000000, -0.5000000000000000000 ) ) ;
#5 = CARTESIAN_POINT ( 'NONE',  ( -0.3838582677165354200, 0.0000000000000000000, 0.5000000000000000000 ) ) ;
#6 = DIRECTION ( 'NONE',  ( 1.000000000000000000, 0.0000000000000000000, -0.0000000000000000000 ) ) ;
#7 = LINE ( 'NONE', #86, #34 ) ;
#8 = PRODUCT_DEFINITION_FORMATION_WITH_SPECIFIED_SOURCE ( 'ANY', '', #182, .NOT_KNOWN. ) ;
#9 = PRODUCT_DEFINITION_CONTEXT ( 'detailed design', #55, 'design' ) ;
#10 = ORIENTED_EDGE ( 'NONE', *, *, #323, .F. ) ;
#11 = EDGE_CURVE ( 'NONE', #204, #244, #181, .T. ) ;
#12 = VECTOR ( 'NONE', #80, 39.37007874015748100 ) ;
#13 = VERTEX_POINT ( 'NONE', #350 ) ;
#14 = ORIENTED_EDGE ( 'NONE', *, *, #11, .F. ) ;
#15 = DIRECTION ( 'NONE',  ( 1.000000000000000000, 0.0000000000000000000, -0.0000000000000000000 ) ) ;
#16 = LINE ( 'NONE', #58, #44 ) ;
#17 = PLANE ( 'NONE',  #223 ) ;
#18 = CARTESIAN_POINT ( 'NONE',  ( 0.0000000000000000000, 0.0000000000000000000, 0.5000000000000000000 ) ) ;
#19 = PRODUCT_DEFINITION ( 'UNKNOWN', '', #8, #9 ) ;
#20 = DIRECTION ( 'NONE',  ( 0.0000000000000000000, 0.0000000000000000000, 1.000000000000000000 ) ) ;
#21 = FACE_BOUND ( 'NONE', #275, .T. ) ;
#22 = VECTOR ( 'NONE', #138, 39.37007874015748900 ) ;
#23 = CARTESIAN_POINT ( 'NONE',  ( 0.1472243186433546100, -0.2550000000000000000, -0.5000000000000000000 ) ) ;
#24 = DIRECTION ( 'NONE',  ( -0.5000000000000000000, -0.8660254037844386000, 0.0000000000000000000 ) ) ;
#25 = FACE_OUTER_BOUND ( 'NONE', #314, .T. ) ;
#26 = MANIFOLD_SOLID_BREP ( 'Boss-Extrude1', #302 ) ;
#27 = ADVANCED_FACE ( 'NONE', ( #215 ), #148, .T. ) ;
#28 = DIRECTION ( 'NONE',  ( 1.000000000000000000, 0.0000000000000000000, 0.0000000000000000000 ) ) ;
#29 = DIRECTION ( 'NONE',  ( 0.0000000000000000000, -0.0000000000000000000, 1.000000000000000000 ) ) ;
#30 = DIRECTION ( 'NONE',  ( 1.000000000000000000, 0.0000000000000000000, 0.0000000000000000000 ) ) ;
#31 = FACE_BOUND ( 'NONE', #121, .T. ) ;
#32 = DIRECTION ( 'NONE',  ( -0.0000000000000000000, -0.0000000000000000000, -1.000000000000000000 ) ) ;
#33 = PLANE ( 'NONE',  #192 ) ;
#34 = VECTOR ( 'NONE', #336, 39.37007874015748100 ) ;
#35 = ORIENTED_EDGE ( 'NONE', *, *, #94, .F. ) ;
#36 = COLOUR_RGB ( '',0.4941176470588235500, 0.4941176470588235500, 0.4941176470588235500 ) ;
#37 = DIRECTION ( 'NONE',  ( 1.000000000000000000, 0.0000000000000000000, 0.0000000000000000000 ) ) ;
#38 = PRESENTATION_STYLE_ASSIGNMENT (( #295 ) ) ;
#39 =( NAMED_UNIT ( * ) SI_UNIT ( $, .STERADIAN. ) SOLID_ANGLE_UNIT ( ) );
#40 = CARTESIAN_POINT ( 'NONE',  ( -0.1472243186433545600, -0.2550000000000000000, 0.5000000000000000000 ) ) ;
#41 = ORIENTED_EDGE ( 'NONE', *, *, #326, .F. ) ;
#42 = DIRECTION ( 'NONE',  ( 0.5000000000000001100, -0.8660254037844384900, 0.0000000000000000000 ) ) ;
#43 = DIRECTION ( 'NONE',  ( -0.0000000000000000000, -0.0000000000000000000, -1.000000000000000000 ) ) ;
#44 = VECTOR ( 'NONE', #256, 39.37007874015748100 ) ;
#45 = DIRECTION ( 'NONE',  ( 0.5000000000000000000, 0.8660254037844386000, 0.0000000000000000000 ) ) ;
#46 = CARTESIAN_POINT ( 'NONE',  ( -0.1472243186433545600, -0.2550000000000000000, 0.5000000000000000000 ) ) ;
#47 = ADVANCED_FACE ( 'NONE', ( #172 ), #17, .T. ) ;
#48 = CARTESIAN_POINT ( 'NONE',  ( -0.2944486372867092200, 2.527242374660742700E-017, -0.5000000000000000000 ) ) ;
#49 = ORIENTED_EDGE ( 'NONE', *, *, #94, .T. ) ;
#50 = UNCERTAINTY_MEASURE_WITH_UNIT (LENGTH_MEASURE( 1.000000000000000100E-005 ), #137, 'distance_accuracy_value', 'NONE');
#51 = VERTEX_POINT ( 'NONE', #343 ) ;
#52 = COLOUR_RGB ( '',0.4941176470588235500, 0.4941176470588235500, 0.4941176470588235500 ) ;
#53 = LINE ( 'NONE', #304, #208 ) ;
#54 = CARTESIAN_POINT ( 'NONE',  ( -0.1472243186433546400, 0.2550000000000000600, 0.5000000000000000000 ) ) ;
#55 = APPLICATION_CONTEXT ( 'automotive_design' ) ;
#56 = DIMENSIONAL_EXPONENTS ( 1.000000000000000000, 0.0000000000000000000, 0.0000000000000000000, 0.0000000000000000000, 0.0000000000000000000, 0.0000000000000000000, 0.0000000000000000000 ) ;
#57 = VERTEX_POINT ( 'NONE', #268 ) ;
#58 = CARTESIAN_POINT ( 'NONE',  ( 0.2944486372867092200, 1.028089255413782600E-017, 0.5000000000000000000 ) ) ;
#59 = VECTOR ( 'NONE', #111, 39.37007874015748100 ) ;
#60 = LINE ( 'NONE', #333, #22 ) ;
#61 = AXIS2_PLACEMENT_3D ( 'NONE', #104, #195, #30 ) ;
#62 = VECTOR ( 'NONE', #280, 39.37007874015748900 ) ;
#63 = APPLICATION_PROTOCOL_DEFINITION ( 'draft international standard', 'automotive_design', 1998, #90 ) ;
#64 = EDGE_CURVE ( 'NONE', #235, #244, #130, .T. ) ;
#65 = ORIENTED_EDGE ( 'NONE', *, *, #337, .T. ) ;
#66 = PLANE ( 'NONE',  #184 ) ;
#67 = CARTESIAN_POINT ( 'NONE',  ( -0.1472243186433545600, -0.2550000000000000000, 0.5000000000000000000 ) ) ;
#68 = VECTOR ( 'NONE', #37, 39.37007874015748100 ) ;
#69 = CARTESIAN_POINT ( 'NONE',  ( -0.1472243186433546400, 0.2550000000000000600, -0.5000000000000000000 ) ) ;
#70 = CARTESIAN_POINT ( 'NONE',  ( 0.1472243186433544700, 0.2550000000000001700, 0.5000000000000000000 ) ) ;
#71 = CARTESIAN_POINT ( 'NONE',  ( 0.0000000000000000000, 0.0000000000000000000, 0.5000000000000000000 ) ) ;
#72 = PRODUCT_RELATED_PRODUCT_CATEGORY ( 'part', '', ( #182 ) ) ;
#73 = CARTESIAN_POINT ( 'NONE',  ( 0.0000000000000000000, 0.0000000000000000000, 0.5000000000000000000 ) ) ;
#74 = EDGE_CURVE ( 'NONE', #157, #13, #140, .T. ) ;
#75 = DIRECTION ( 'NONE',  ( -0.5000000000000001100, 0.8660254037844384900, 0.0000000000000000000 ) ) ;
#76 = LENGTH_MEASURE_WITH_UNIT ( LENGTH_MEASURE( 0.02539999999999999900 ), #308 );
#77 = FACE_OUTER_BOUND ( 'NONE', #309, .T. ) ;
#78 = CYLINDRICAL_SURFACE ( 'NONE', #131, 0.3838582677165354200 ) ;
#79 = ORIENTED_EDGE ( 'NONE', *, *, #74, .T. ) ;
#80 = DIRECTION ( 'NONE',  ( 1.000000000000000000, 0.0000000000000000000, 0.0000000000000000000 ) ) ;
#81 = CARTESIAN_POINT ( 'NONE',  ( -0.1472243186433546400, 0.2550000000000000600, 0.5000000000000000000 ) ) ;
#82 = DIMENSIONAL_EXPONENTS ( 1.000000000000000000, 0.0000000000000000000, 0.0000000000000000000, 0.0000000000000000000, 0.0000000000000000000, 0.0000000000000000000, 0.0000000000000000000 ) ;
#83 = DIRECTION ( 'NONE',  ( 0.4999999999999998900, 0.8660254037844386000, 0.0000000000000000000 ) ) ;
#84 = LINE ( 'NONE', #69, #2 ) ;
#85 = LINE ( 'NONE', #46, #12 ) ;
#86 = CARTESIAN_POINT ( 'NONE',  ( 0.1472243186433544700, 0.2550000000000001700, 0.5000000000000000000 ) ) ;
#87 =( GEOMETRIC_REPRESENTATION_CONTEXT ( 3 ) GLOBAL_UNCERTAINTY_ASSIGNED_CONTEXT ( ( #50 ) ) GLOBAL_UNIT_ASSIGNED_CONTEXT ( ( #137, #330, #170 ) ) REPRESENTATION_CONTEXT ( 'NONE', 'WORKASPACE' ) );
#88 = MECHANICAL_DESIGN_GEOMETRIC_PRESENTATION_REPRESENTATION (  '', ( #100 ), #87 ) ;
#89 = VERTEX_POINT ( 'NONE', #294 ) ;
#90 = APPLICATION_CONTEXT ( 'automotive_design' ) ;
#91 = DIRECTION ( 'NONE',  ( 0.8660254037844386000, 0.5000000000000001100, -0.0000000000000000000 ) ) ;
#92 = LINE ( 'NONE', #150, #59 ) ;
#93 = FACE_OUTER_BOUND ( 'NONE', #217, .T. ) ;
#94 = EDGE_CURVE ( 'NONE', #13, #335, #84, .T. ) ;
#95 = SURFACE_SIDE_STYLE ('',( #145 ) ) ;
#96 = CARTESIAN_POINT ( 'NONE',  ( -0.1472243186433546400, 0.2550000000000000600, 0.5000000000000000000 ) ) ;
#97 = CARTESIAN_POINT ( 'NONE',  ( 0.1472243186433546100, -0.2550000000000000000, 0.5000000000000000000 ) ) ;
#98 = PRESENTATION_LAYER_ASSIGNMENT (  '', '', ( #100 ) ) ;
#99 = DIRECTION ( 'NONE',  ( 1.000000000000000000, 0.0000000000000000000, 0.0000000000000000000 ) ) ;
#100 = STYLED_ITEM ( 'NONE', ( #158 ), #220 ) ;
#101 = LENGTH_MEASURE_WITH_UNIT ( LENGTH_MEASURE( 0.02539999999999999900 ), #303 );
#102 = LINE ( 'NONE', #267, #207 ) ;
#103 = FACE_OUTER_BOUND ( 'NONE', #273, .T. ) ;
#104 = CARTESIAN_POINT ( 'NONE',  ( 0.0000000000000000000, 0.0000000000000000000, 0.0000000000000000000 ) ) ;
#105 = EDGE_CURVE ( 'NONE', #261, #51, #102, .T. ) ;
#106 = EDGE_CURVE ( 'NONE', #244, #13, #92, .T. ) ;
#107 = PLANE ( 'NONE',  #110 ) ;
#108 = VERTEX_POINT ( 'NONE', #344 ) ;
#109 = ORIENTED_EDGE ( 'NONE', *, *, #346, .T. ) ;
#110 = AXIS2_PLACEMENT_3D ( 'NONE', #219, #305, #347 ) ;
#111 = DIRECTION ( 'NONE',  ( -1.000000000000000000, -3.479190826162944300E-016, 0.0000000000000000000 ) ) ;
#112 = DIRECTION ( 'NONE',  ( 0.5000000000000001100, -0.8660254037844386000, 0.0000000000000000000 ) ) ;
#113 = ORIENTED_EDGE ( 'NONE', *, *, #11, .T. ) ;
#114 = LENGTH_MEASURE_WITH_UNIT ( LENGTH_MEASURE( 0.02539999999999999900 ), #124 );
#115 = CARTESIAN_POINT ( 'NONE',  ( -0.1472243186433545600, -0.2550000000000000000, -0.5000000000000000000 ) ) ;
#116 =( GEOMETRIC_REPRESENTATION_CONTEXT ( 3 ) GLOBAL_UNCERTAINTY_ASSIGNED_CONTEXT ( ( #331 ) ) GLOBAL_UNIT_ASSIGNED_CONTEXT ( ( #132, #202, #39 ) ) REPRESENTATION_CONTEXT ( 'NONE', 'WORKASPACE' ) );
#117 = EDGE_LOOP ( 'NONE', ( #14, #271, #251, #156 ) ) ;
#118 = FILL_AREA_STYLE ('',( #290 ) ) ;
#119 = VECTOR ( 'NONE', #286, 39.37007874015748900 ) ;
#120 = CARTESIAN_POINT ( 'NONE',  ( 0.3838582677165354200, 4.700907988853029100E-017, 0.5000000000000000000 ) ) ;
#121 = EDGE_LOOP ( 'NONE', ( #153, #142, #10, #41, #250, #245 ) ) ;
#122 = CARTESIAN_POINT ( 'NONE',  ( -0.1472243186433546400, 0.2550000000000000600, 0.5000000000000000000 ) ) ;
#123 = VECTOR ( 'NONE', #241, 39.37007874015748100 ) ;
#124 =( LENGTH_UNIT ( ) NAMED_UNIT ( * ) SI_UNIT ( $, .METRE. ) );
#125 = CARTESIAN_POINT ( 'NONE',  ( 0.2944486372867092200, 1.028089255413782600E-017, 0.5000000000000000000 ) ) ;
#126 = AXIS2_PLACEMENT_3D ( 'NONE', #166, #190, #24 ) ;
#127 = ORIENTED_EDGE ( 'NONE', *, *, #237, .T. ) ;
#128 = FILL_AREA_STYLE_COLOUR ( '', #36 ) ;
#129 = SHAPE_DEFINITION_REPRESENTATION ( #260, #220 ) ;
#130 = LINE ( 'NONE', #70, #123 ) ;
#131 = AXIS2_PLACEMENT_3D ( 'NONE', #283, #168, #310 ) ;
#132 =( CONVERSION_BASED_UNIT ( 'INCH', #101 ) LENGTH_UNIT ( ) NAMED_UNIT ( #56 ) );
#133 = FACE_OUTER_BOUND ( 'NONE', #218, .T. ) ;
#134 = PLANE ( 'NONE',  #126 ) ;
#135 = AXIS2_PLACEMENT_3D ( 'NONE', #71, #296, #216 ) ;
#136 = FILL_AREA_STYLE ('',( #128 ) ) ;
#137 =( CONVERSION_BASED_UNIT ( 'INCH', #76 ) LENGTH_UNIT ( ) NAMED_UNIT ( #167 ) );
#138 = DIRECTION ( 'NONE',  ( 0.5000000000000000000, 0.8660254037844386000, 0.0000000000000000000 ) ) ;
#139 = AXIS2_PLACEMENT_3D ( 'NONE', #54, #253, #83 ) ;
#140 = LINE ( 'NONE', #96, #161 ) ;
#141 = VECTOR ( 'NONE', #45, 39.37007874015748900 ) ;
#142 = ORIENTED_EDGE ( 'NONE', *, *, #322, .F. ) ;
#143 = SURFACE_STYLE_USAGE ( .BOTH. , #316 ) ;
#144 = ORIENTED_EDGE ( 'NONE', *, *, #349, .T. ) ;
#145 = SURFACE_STYLE_FILL_AREA ( #136 ) ;
#146 = ORIENTED_EDGE ( 'NONE', *, *, #289, .F. ) ;
#147 = CARTESIAN_POINT ( 'NONE',  ( 0.1472243186433544700, 0.2550000000000001700, -0.5000000000000000000 ) ) ;
#148 = CYLINDRICAL_SURFACE ( 'NONE', #231, 0.3838582677165354200 ) ;
#149 = CARTESIAN_POINT ( 'NONE',  ( 0.2944486372867092200, 1.028089255413782600E-017, 0.5000000000000000000 ) ) ;
#150 = CARTESIAN_POINT ( 'NONE',  ( 0.1472243186433544700, 0.2550000000000001700, -0.5000000000000000000 ) ) ;
#151 = CIRCLE ( 'NONE', #177, 0.3838582677165354200 ) ;
#152 =( NAMED_UNIT ( * ) PLANE_ANGLE_UNIT ( ) SI_UNIT ( $, .RADIAN. ) );
#153 = ORIENTED_EDGE ( 'NONE', *, *, #317, .F. ) ;
#154 = VERTEX_POINT ( 'NONE', #5 ) ;
#155 = DIRECTION ( 'NONE',  ( -1.000000000000000000, 0.0000000000000000000, 0.0000000000000000000 ) ) ;
#156 = ORIENTED_EDGE ( 'NONE', *, *, #64, .T. ) ;
#157 = VERTEX_POINT ( 'NONE', #122 ) ;
#158 = PRESENTATION_STYLE_ASSIGNMENT (( #143 ) ) ;
#159 = VERTEX_POINT ( 'NONE', #329 ) ;
#160 = AXIS2_PLACEMENT_3D ( 'NONE', #4, #194, #28 ) ;
#161 = VECTOR ( 'NONE', #239, 39.37007874015748100 ) ;
#162 = UNCERTAINTY_MEASURE_WITH_UNIT (LENGTH_MEASURE( 1.000000000000000100E-005 ), #320, 'distance_accuracy_value', 'NONE');
#163 = LINE ( 'NONE', #197, #240 ) ;
#164 = ORIENTED_EDGE ( 'NONE', *, *, #297, .F. ) ;
#165 = ORIENTED_EDGE ( 'NONE', *, *, #315, .T. ) ;
#166 = CARTESIAN_POINT ( 'NONE',  ( 0.1472243186433546100, -0.2550000000000000000, 0.5000000000000000000 ) ) ;
#167 = DIMENSIONAL_EXPONENTS ( 1.000000000000000000, 0.0000000000000000000, 0.0000000000000000000, 0.0000000000000000000, 0.0000000000000000000, 0.0000000000000000000, 0.0000000000000000000 ) ;
#168 = DIRECTION ( 'NONE',  ( -0.0000000000000000000, -0.0000000000000000000, -1.000000000000000000 ) ) ;
#169 = CARTESIAN_POINT ( 'NONE',  ( 0.0000000000000000000, 0.0000000000000000000, 0.5000000000000000000 ) ) ;
#170 =( NAMED_UNIT ( * ) SI_UNIT ( $, .STERADIAN. ) SOLID_ANGLE_UNIT ( ) );
#171 = ADVANCED_FACE ( 'NONE', ( #77, #31 ), #226, .T. ) ;
#172 = FACE_OUTER_BOUND ( 'NONE', #117, .T. ) ;
#173 = DIRECTION ( 'NONE',  ( 0.0000000000000000000, 0.0000000000000000000, 1.000000000000000000 ) ) ;
#174 = CIRCLE ( 'NONE', #135, 0.3838582677165354200 ) ;
#175 = EDGE_LOOP ( 'NONE', ( #164, #146 ) ) ;
#176 = VECTOR ( 'NONE', #75, 39.37007874015748900 ) ;
#177 = AXIS2_PLACEMENT_3D ( 'NONE', #73, #270, #99 ) ;
#178 = CARTESIAN_POINT ( 'NONE',  ( 0.2944486372867092200, 1.028089255413782600E-017, 0.5000000000000000000 ) ) ;
#179 = AXIS2_PLACEMENT_3D ( 'NONE', #67, #229, #29 ) ;
#180 = AXIS2_PLACEMENT_3D ( 'NONE', #187, #20, #211 ) ;
#181 = LINE ( 'NONE', #300, #176 ) ;
#182 = PRODUCT ( '217-3263-STEP', '217-3263-STEP', '', ( #228 ) ) ;
#183 = DIRECTION ( 'NONE',  ( 0.0000000000000000000, 0.0000000000000000000, 1.000000000000000000 ) ) ;
#184 = AXIS2_PLACEMENT_3D ( 'NONE', #264, #91, #292 ) ;
#185 = CARTESIAN_POINT ( 'NONE',  ( -0.2944486372867092200, 2.527242374660742700E-017, 0.5000000000000000000 ) ) ;
#186 = LINE ( 'NONE', #185, #230 ) ;
#187 = CARTESIAN_POINT ( 'NONE',  ( 0.0000000000000000000, 0.0000000000000000000, -0.5000000000000000000 ) ) ;
#188 = SURFACE_STYLE_FILL_AREA ( #118 ) ;
#189 = EDGE_CURVE ( 'NONE', #288, #204, #16, .T. ) ;
#190 = DIRECTION ( 'NONE',  ( -0.8660254037844387100, 0.5000000000000001100, 0.0000000000000000000 ) ) ;
#191 = EDGE_CURVE ( 'NONE', #335, #89, #222, .T. ) ;
#192 = AXIS2_PLACEMENT_3D ( 'NONE', #340, #183, #15 ) ;
#193 = ADVANCED_FACE ( 'NONE', ( #298, #21 ), #33, .F. ) ;
#194 = DIRECTION ( 'NONE',  ( 0.0000000000000000000, 0.0000000000000000000, 1.000000000000000000 ) ) ;
#195 = DIRECTION ( 'NONE',  ( 0.0000000000000000000, 0.0000000000000000000, 1.000000000000000000 ) ) ;
#196 = ADVANCED_FACE ( 'NONE', ( #133 ), #66, .T. ) ;
#197 = CARTESIAN_POINT ( 'NONE',  ( 0.3838582677165354200, 4.700907988853029100E-017, 0.5000000000000000000 ) ) ;
#198 = CARTESIAN_POINT ( 'NONE',  ( -0.2944486372867092200, 2.527242374660742700E-017, -0.5000000000000000000 ) ) ;
#199 = LINE ( 'NONE', #115, #68 ) ;
#200 = ORIENTED_EDGE ( 'NONE', *, *, #74, .F. ) ;
#201 = LINE ( 'NONE', #23, #141 ) ;
#202 =( NAMED_UNIT ( * ) PLANE_ANGLE_UNIT ( ) SI_UNIT ( $, .RADIAN. ) );
#203 = CARTESIAN_POINT ( 'NONE',  ( 0.2944486372867092200, 1.028089255413782600E-017, -0.5000000000000000000 ) ) ;
#204 = VERTEX_POINT ( 'NONE', #203 ) ;
#205 = ORIENTED_EDGE ( 'NONE', *, *, #351, .F. ) ;
#206 = DIRECTION ( 'NONE',  ( -0.0000000000000000000, -0.0000000000000000000, -1.000000000000000000 ) ) ;
#207 = VECTOR ( 'NONE', #281, 39.37007874015748100 ) ;
#208 = VECTOR ( 'NONE', #324, 39.37007874015748100 ) ;
#209 = DIRECTION ( 'NONE',  ( -0.8660254037844386000, -0.5000000000000002200, 0.0000000000000000000 ) ) ;
#210 = VECTOR ( 'NONE', #112, 39.37007874015748100 ) ;
#211 = DIRECTION ( 'NONE',  ( 1.000000000000000000, 0.0000000000000000000, 0.0000000000000000000 ) ) ;
#212 = EDGE_LOOP ( 'NONE', ( #252, #233, #243, #242 ) ) ;
#213 = ORIENTED_EDGE ( 'NONE', *, *, #106, .T. ) ;
#214 = AXIS2_PLACEMENT_3D ( 'NONE', #169, #173, #6 ) ;
#215 = FACE_OUTER_BOUND ( 'NONE', #348, .T. ) ;
#216 = DIRECTION ( 'NONE',  ( 1.000000000000000000, 0.0000000000000000000, 0.0000000000000000000 ) ) ;
#217 = EDGE_LOOP ( 'NONE', ( #274, #291, #341, #234 ) ) ;
#218 = EDGE_LOOP ( 'NONE', ( #227, #284, #266, #279 ) ) ;
#219 = CARTESIAN_POINT ( 'NONE',  ( 0.1472243186433544700, 0.2550000000000001700, 0.5000000000000000000 ) ) ;
#220 = ADVANCED_BREP_SHAPE_REPRESENTATION ( '217-3263-STEP', ( #26, #61 ), #116 ) ;
#221 = LINE ( 'NONE', #178, #119 ) ;
#222 = LINE ( 'NONE', #198, #210 ) ;
#223 = AXIS2_PLACEMENT_3D ( 'NONE', #149, #209, #42 ) ;
#224 = VERTEX_POINT ( 'NONE', #120 ) ;
#225 = PLANE ( 'NONE',  #139 ) ;
#226 = PLANE ( 'NONE',  #214 ) ;
#227 = ORIENTED_EDGE ( 'NONE', *, *, #191, .F. ) ;
#228 = PRODUCT_CONTEXT ( 'NONE', #90, 'mechanical' ) ;
#229 = DIRECTION ( 'NONE',  ( 0.0000000000000000000, 1.000000000000000000, 0.0000000000000000000 ) ) ;
#230 = VECTOR ( 'NONE', #206, 39.37007874015748100 ) ;
#231 = AXIS2_PLACEMENT_3D ( 'NONE', #18, #43, #155 ) ;
#232 = ORIENTED_EDGE ( 'NONE', *, *, #349, .F. ) ;
#233 = ORIENTED_EDGE ( 'NONE', *, *, #257, .F. ) ;
#234 = ORIENTED_EDGE ( 'NONE', *, *, #297, .T. ) ;
#235 = VERTEX_POINT ( 'NONE', #342 ) ;
#236 = PLANE ( 'NONE',  #179 ) ;
#237 = EDGE_CURVE ( 'NONE', #57, #335, #186, .T. ) ;
#238 = DIRECTION ( 'NONE',  ( -0.0000000000000000000, -0.0000000000000000000, -1.000000000000000000 ) ) ;
#239 = DIRECTION ( 'NONE',  ( -0.0000000000000000000, -0.0000000000000000000, -1.000000000000000000 ) ) ;
#240 = VECTOR ( 'NONE', #32, 39.37007874015748100 ) ;
#241 = DIRECTION ( 'NONE',  ( -0.0000000000000000000, -0.0000000000000000000, -1.000000000000000000 ) ) ;
#242 = ORIENTED_EDGE ( 'NONE', *, *, #105, .T. ) ;
#243 = ORIENTED_EDGE ( 'NONE', *, *, #322, .T. ) ;
#244 = VERTEX_POINT ( 'NONE', #147 ) ;
#245 = ORIENTED_EDGE ( 'NONE', *, *, #339, .F. ) ;
#246 = CIRCLE ( 'NONE', #180, 0.3838582677165354200 ) ;
#247 = ORIENTED_EDGE ( 'NONE', *, *, #289, .T. ) ;
#248 = CARTESIAN_POINT ( 'NONE',  ( -0.3838582677165354200, 0.0000000000000000000, 0.5000000000000000000 ) ) ;
#249 = ADVANCED_FACE ( 'NONE', ( #318 ), #236, .T. ) ;
#250 = ORIENTED_EDGE ( 'NONE', *, *, #337, .F. ) ;
#251 = ORIENTED_EDGE ( 'NONE', *, *, #339, .T. ) ;
#252 = ORIENTED_EDGE ( 'NONE', *, *, #346, .F. ) ;
#253 = DIRECTION ( 'NONE',  ( 0.8660254037844387100, -0.4999999999999999400, 0.0000000000000000000 ) ) ;
#254 = FACE_OUTER_BOUND ( 'NONE', #299, .T. ) ;
#255 = APPLICATION_PROTOCOL_DEFINITION ( 'draft international standard', 'automotive_design', 1998, #55 ) ;
#256 = DIRECTION ( 'NONE',  ( -0.0000000000000000000, -0.0000000000000000000, -1.000000000000000000 ) ) ;
#257 = EDGE_CURVE ( 'NONE', #159, #89, #258, .T. ) ;
#258 = LINE ( 'NONE', #40, #301 ) ;
#259 = VERTEX_POINT ( 'NONE', #269 ) ;
#260 = PRODUCT_DEFINITION_SHAPE ( 'NONE', 'NONE',  #19 ) ;
#261 = VERTEX_POINT ( 'NONE', #97 ) ;
#262 = ORIENTED_EDGE ( 'NONE', *, *, #317, .T. ) ;
#263 = VECTOR ( 'NONE', #278, 39.37007874015748100 ) ;
#264 = CARTESIAN_POINT ( 'NONE',  ( -0.2944486372867092200, 2.527242374660742700E-017, 0.5000000000000000000 ) ) ;
#265 = ORIENTED_EDGE ( 'NONE', *, *, #191, .T. ) ;
#266 = ORIENTED_EDGE ( 'NONE', *, *, #323, .T. ) ;
#267 = CARTESIAN_POINT ( 'NONE',  ( 0.1472243186433546100, -0.2550000000000000000, 0.5000000000000000000 ) ) ;
#268 = CARTESIAN_POINT ( 'NONE',  ( -0.2944486372867092800, 1.707404996040164500E-017, 0.5000000000000000000 ) ) ;
#269 = CARTESIAN_POINT ( 'NONE',  ( 0.3838582677165354200, 4.700907988853029100E-017, -0.5000000000000000000 ) ) ;
#270 = DIRECTION ( 'NONE',  ( 0.0000000000000000000, 0.0000000000000000000, 1.000000000000000000 ) ) ;
#271 = ORIENTED_EDGE ( 'NONE', *, *, #189, .F. ) ;
#272 =( GEOMETRIC_REPRESENTATION_CONTEXT ( 3 ) GLOBAL_UNCERTAINTY_ASSIGNED_CONTEXT ( ( #162 ) ) GLOBAL_UNIT_ASSIGNED_CONTEXT ( ( #320, #152, #345 ) ) REPRESENTATION_CONTEXT ( 'NONE', 'WORKASPACE' ) );
#273 = EDGE_LOOP ( 'NONE', ( #35, #200, #327, #127 ) ) ;
#274 = ORIENTED_EDGE ( 'NONE', *, *, #312, .F. ) ;
#275 = EDGE_LOOP ( 'NONE', ( #109, #144, #113, #213, #49, #265 ) ) ;
#276 = MECHANICAL_DESIGN_GEOMETRIC_PRESENTATION_REPRESENTATION (  '', ( #282 ), #272 ) ;
#277 = PRESENTATION_LAYER_ASSIGNMENT (  '', '', ( #282 ) ) ;
#278 = DIRECTION ( 'NONE',  ( -0.0000000000000000000, -0.0000000000000000000, -1.000000000000000000 ) ) ;
#279 = ORIENTED_EDGE ( 'NONE', *, *, #257, .T. ) ;
#280 = DIRECTION ( 'NONE',  ( -0.4999999999999998900, -0.8660254037844386000, 0.0000000000000000000 ) ) ;
#281 = DIRECTION ( 'NONE',  ( -0.0000000000000000000, -0.0000000000000000000, -1.000000000000000000 ) ) ;
#282 = STYLED_ITEM ( 'NONE', ( #38 ), #26 ) ;
#283 = CARTESIAN_POINT ( 'NONE',  ( 0.0000000000000000000, 0.0000000000000000000, 0.5000000000000000000 ) ) ;
#284 = ORIENTED_EDGE ( 'NONE', *, *, #237, .F. ) ;
#285 = ORIENTED_EDGE ( 'NONE', *, *, #106, .F. ) ;
#286 = DIRECTION ( 'NONE',  ( -0.5000000000000001100, 0.8660254037844384900, 0.0000000000000000000 ) ) ;
#287 = ORIENTED_EDGE ( 'NONE', *, *, #312, .T. ) ;
#288 = VERTEX_POINT ( 'NONE', #125 ) ;
#289 = EDGE_CURVE ( 'NONE', #259, #108, #246, .T. ) ;
#290 = FILL_AREA_STYLE_COLOUR ( '', #52 ) ;
#291 = ORIENTED_EDGE ( 'NONE', *, *, #315, .F. ) ;
#292 = DIRECTION ( 'NONE',  ( -0.5000000000000001100, 0.8660254037844386000, 0.0000000000000000000 ) ) ;
#293 = EDGE_CURVE ( 'NONE', #224, #154, #151, .T. ) ;
#294 = CARTESIAN_POINT ( 'NONE',  ( -0.1472243186433546400, -0.2550000000000000000, -0.5000000000000000000 ) ) ;
#295 = SURFACE_STYLE_USAGE ( .BOTH. , #95 ) ;
#296 = DIRECTION ( 'NONE',  ( 0.0000000000000000000, 0.0000000000000000000, 1.000000000000000000 ) ) ;
#297 = EDGE_CURVE ( 'NONE', #108, #259, #313, .T. ) ;
#298 = FACE_OUTER_BOUND ( 'NONE', #175, .T. ) ;
#299 = EDGE_LOOP ( 'NONE', ( #232, #321, #262, #306 ) ) ;
#300 = CARTESIAN_POINT ( 'NONE',  ( 0.2944486372867092200, 1.028089255413782600E-017, -0.5000000000000000000 ) ) ;
#301 = VECTOR ( 'NONE', #238, 39.37007874015748100 ) ;
#302 = CLOSED_SHELL ( 'NONE', ( #27, #171, #193, #311, #249, #325, #47, #332, #307, #196 ) ) ;
#303 =( LENGTH_UNIT ( ) NAMED_UNIT ( * ) SI_UNIT ( $, .METRE. ) );
#304 = CARTESIAN_POINT ( 'NONE',  ( -0.2944486372867092200, 2.527242374660742700E-017, 0.5000000000000000000 ) ) ;
#305 = DIRECTION ( 'NONE',  ( 3.479190826162944300E-016, -1.000000000000000000, 0.0000000000000000000 ) ) ;
#306 = ORIENTED_EDGE ( 'NONE', *, *, #189, .T. ) ;
#307 = ADVANCED_FACE ( 'NONE', ( #103 ), #225, .T. ) ;
#308 =( LENGTH_UNIT ( ) NAMED_UNIT ( * ) SI_UNIT ( $, .METRE. ) );
#309 = EDGE_LOOP ( 'NONE', ( #165, #338 ) ) ;
#310 = DIRECTION ( 'NONE',  ( -1.000000000000000000, 0.0000000000000000000, 0.0000000000000000000 ) ) ;
#311 = ADVANCED_FACE ( 'NONE', ( #93 ), #78, .T. ) ;
#312 = EDGE_CURVE ( 'NONE', #224, #259, #163, .T. ) ;
#313 = CIRCLE ( 'NONE', #160, 0.3838582677165354200 ) ;
#314 = EDGE_LOOP ( 'NONE', ( #285, #334, #65, #79 ) ) ;
#315 = EDGE_CURVE ( 'NONE', #154, #224, #174, .T. ) ;
#316 = SURFACE_SIDE_STYLE ('',( #188 ) ) ;
#317 = EDGE_CURVE ( 'NONE', #261, #288, #60, .T. ) ;
#318 = FACE_OUTER_BOUND ( 'NONE', #212, .T. ) ;
#319 = DIRECTION ( 'NONE',  ( -0.4999999999999998900, -0.8660254037844386000, 0.0000000000000000000 ) ) ;
#320 =( CONVERSION_BASED_UNIT ( 'INCH', #114 ) LENGTH_UNIT ( ) NAMED_UNIT ( #82 ) );
#321 = ORIENTED_EDGE ( 'NONE', *, *, #105, .F. ) ;
#322 = EDGE_CURVE ( 'NONE', #159, #261, #85, .T. ) ;
#323 = EDGE_CURVE ( 'NONE', #57, #159, #53, .T. ) ;
#324 = DIRECTION ( 'NONE',  ( 0.5000000000000001100, -0.8660254037844386000, 0.0000000000000000000 ) ) ;
#325 = ADVANCED_FACE ( 'NONE', ( #254 ), #134, .T. ) ;
#326 = EDGE_CURVE ( 'NONE', #157, #57, #3, .T. ) ;
#327 = ORIENTED_EDGE ( 'NONE', *, *, #326, .T. ) ;
#328 = LINE ( 'NONE', #248, #263 ) ;
#329 = CARTESIAN_POINT ( 'NONE',  ( -0.1472243186433545600, -0.2550000000000000000, 0.5000000000000000000 ) ) ;
#330 =( NAMED_UNIT ( * ) PLANE_ANGLE_UNIT ( ) SI_UNIT ( $, .RADIAN. ) );
#331 = UNCERTAINTY_MEASURE_WITH_UNIT (LENGTH_MEASURE( 1.000000000000000100E-005 ), #132, 'distance_accuracy_value', 'NONE');
#332 = ADVANCED_FACE ( 'NONE', ( #25 ), #107, .T. ) ;
#333 = CARTESIAN_POINT ( 'NONE',  ( 0.1472243186433546100, -0.2550000000000000000, 0.5000000000000000000 ) ) ;
#334 = ORIENTED_EDGE ( 'NONE', *, *, #64, .F. ) ;
#335 = VERTEX_POINT ( 'NONE', #48 ) ;
#336 = DIRECTION ( 'NONE',  ( -1.000000000000000000, -3.479190826162944300E-016, 0.0000000000000000000 ) ) ;
#337 = EDGE_CURVE ( 'NONE', #235, #157, #7, .T. ) ;
#338 = ORIENTED_EDGE ( 'NONE', *, *, #293, .T. ) ;
#339 = EDGE_CURVE ( 'NONE', #288, #235, #221, .T. ) ;
#340 = CARTESIAN_POINT ( 'NONE',  ( 0.0000000000000000000, 0.0000000000000000000, -0.5000000000000000000 ) ) ;
#341 = ORIENTED_EDGE ( 'NONE', *, *, #351, .T. ) ;
#342 = CARTESIAN_POINT ( 'NONE',  ( 0.1472243186433544700, 0.2550000000000001700, 0.5000000000000000000 ) ) ;
#343 = CARTESIAN_POINT ( 'NONE',  ( 0.1472243186433546100, -0.2550000000000000000, -0.5000000000000000000 ) ) ;
#344 = CARTESIAN_POINT ( 'NONE',  ( -0.3838582677165354200, 0.0000000000000000000, -0.5000000000000000000 ) ) ;
#345 =( NAMED_UNIT ( * ) SI_UNIT ( $, .STERADIAN. ) SOLID_ANGLE_UNIT ( ) );
#346 = EDGE_CURVE ( 'NONE', #89, #51, #199, .T. ) ;
#347 = DIRECTION ( 'NONE',  ( 1.000000000000000000, 3.479190826162944300E-016, 0.0000000000000000000 ) ) ;
#348 = EDGE_LOOP ( 'NONE', ( #1, #287, #247, #205 ) ) ;
#349 = EDGE_CURVE ( 'NONE', #51, #204, #201, .T. ) ;
#350 = CARTESIAN_POINT ( 'NONE',  ( -0.1472243186433546400, 0.2550000000000000600, -0.5000000000000000000 ) ) ;
#351 = EDGE_CURVE ( 'NONE', #154, #108, #328, .T. ) ;
ENDSEC;
END-ISO-10303-21;
