ISO-10303-21;
HEADER;
FILE_DESCRIPTION (( 'STEP AP214' ),
    '1' );
FILE_NAME ('217-3262-STEP.STEP',
    '2013-12-06T21:09:44',
    ( '' ),
    ( '' ),
    'SwSTEP 2.0',
    'SolidWorks 2013',
    '' );
FILE_SCHEMA (( 'AUTOMOTIVE_DESIGN' ));
ENDSEC;

DATA;
#1 = EDGE_LOOP ( 'NONE', ( #60, #115, #245, #226, #61, #92 ) ) ;
#2 = FACE_OUTER_BOUND ( 'NONE', #42, .T. ) ;
#3 = VERTEX_POINT ( 'NONE', #183 ) ;
#4 = PLANE ( 'NONE',  #284 ) ;
#5 = CIRCLE ( 'NONE', #112, 0.3125000000000000000 ) ;
#6 = CARTESIAN_POINT ( 'NONE',  ( 0.2222798536380059300, 6.082630298393085800E-017, 0.2500000000000000000 ) ) ;
#7 = ORIENTED_EDGE ( 'NONE', *, *, #335, .T. ) ;
#8 = VERTEX_POINT ( 'NONE', #134 ) ;
#9 = DIRECTION ( 'NONE',  ( -0.0000000000000000000, -0.0000000000000000000, -1.000000000000000000 ) ) ;
#10 = CIRCLE ( 'NONE', #103, 0.3125000000000000000 ) ;
#11 = EDGE_CURVE ( 'NONE', #328, #341, #148, .T. ) ;
#12 = ORIENTED_EDGE ( 'NONE', *, *, #315, .F. ) ;
#13 =( LENGTH_UNIT ( ) NAMED_UNIT ( * ) SI_UNIT ( $, .METRE. ) );
#14 = FACE_OUTER_BOUND ( 'NONE', #158, .T. ) ;
#15 = DIRECTION ( 'NONE',  ( -0.0000000000000000000, -0.0000000000000000000, -1.000000000000000000 ) ) ;
#16 = DIRECTION ( 'NONE',  ( 0.4999999999999996100, 0.8660254037844388200, 0.0000000000000000000 ) ) ;
#17 = FACE_OUTER_BOUND ( 'NONE', #132, .T. ) ;
#18 = CARTESIAN_POINT ( 'NONE',  ( 0.1111399268190029600, -0.1925000000000000900, -0.2500000000000000000 ) ) ;
#19 = VECTOR ( 'NONE', #205, 39.37007874015748100 ) ;
#20 = VERTEX_POINT ( 'NONE', #172 ) ;
#21 = DIRECTION ( 'NONE',  ( 1.000000000000000000, 1.536266079084936900E-016, 0.0000000000000000000 ) ) ;
#22 = EDGE_CURVE ( 'NONE', #314, #142, #88, .T. ) ;
#23 = CARTESIAN_POINT ( 'NONE',  ( 0.0000000000000000000, 0.0000000000000000000, 0.2500000000000000000 ) ) ;
#24 = SURFACE_STYLE_FILL_AREA ( #291 ) ;
#25 = ORIENTED_EDGE ( 'NONE', *, *, #345, .T. ) ;
#26 = COLOUR_RGB ( '',0.4941176470588235500, 0.4941176470588235500, 0.4941176470588235500 ) ;
#27 = LINE ( 'NONE', #89, #290 ) ;
#28 = CYLINDRICAL_SURFACE ( 'NONE', #137, 0.3125000000000000000 ) ;
#29 = VERTEX_POINT ( 'NONE', #327 ) ;
#30 = DIRECTION ( 'NONE',  ( 1.000000000000000000, 0.0000000000000000000, 0.0000000000000000000 ) ) ;
#31 = LINE ( 'NONE', #240, #317 ) ;
#32 = CARTESIAN_POINT ( 'NONE',  ( 0.1111399268190029600, -0.1925000000000000900, 0.2500000000000000000 ) ) ;
#33 = LINE ( 'NONE', #251, #331 ) ;
#34 = LINE ( 'NONE', #346, #59 ) ;
#35 = ORIENTED_EDGE ( 'NONE', *, *, #193, .T. ) ;
#36 = CARTESIAN_POINT ( 'NONE',  ( -0.1111399268190029600, -0.1925000000000001400, 0.2500000000000000000 ) ) ;
#37 = LINE ( 'NONE', #6, #75 ) ;
#38 = PLANE ( 'NONE',  #128 ) ;
#39 =( CONVERSION_BASED_UNIT ( 'INCH', #272 ) LENGTH_UNIT ( ) NAMED_UNIT ( #249 ) );
#40 = CARTESIAN_POINT ( 'NONE',  ( 0.2222798536380059300, 6.082630298393085800E-017, -0.2500000000000000000 ) ) ;
#41 = LINE ( 'NONE', #162, #107 ) ;
#42 = EDGE_LOOP ( 'NONE', ( #69, #101, #62, #74 ) ) ;
#43 = VERTEX_POINT ( 'NONE', #151 ) ;
#44 =( NAMED_UNIT ( * ) PLANE_ANGLE_UNIT ( ) SI_UNIT ( $, .RADIAN. ) );
#45 = FACE_OUTER_BOUND ( 'NONE', #165, .T. ) ;
#46 = ORIENTED_EDGE ( 'NONE', *, *, #180, .F. ) ;
#47 = ADVANCED_FACE ( 'NONE', ( #109 ), #4, .T. ) ;
#48 = CARTESIAN_POINT ( 'NONE',  ( 0.0000000000000000000, 0.0000000000000000000, 0.2500000000000000000 ) ) ;
#49 = ADVANCED_FACE ( 'NONE', ( #144 ), #28, .T. ) ;
#50 = DIRECTION ( 'NONE',  ( 0.0000000000000000000, 0.0000000000000000000, 1.000000000000000000 ) ) ;
#51 = VERTEX_POINT ( 'NONE', #84 ) ;
#52 = DIRECTION ( 'NONE',  ( -1.000000000000000000, 0.0000000000000000000, 0.0000000000000000000 ) ) ;
#53 = UNCERTAINTY_MEASURE_WITH_UNIT (LENGTH_MEASURE( 1.000000000000000100E-005 ), #39, 'distance_accuracy_value', 'NONE');
#54 = ADVANCED_FACE ( 'NONE', ( #2 ), #119, .T. ) ;
#55 = DIRECTION ( 'NONE',  ( 0.4999999999999996100, 0.8660254037844388200, 0.0000000000000000000 ) ) ;
#56 = DIRECTION ( 'NONE',  ( 1.000000000000000000, 0.0000000000000000000, 0.0000000000000000000 ) ) ;
#57 = ADVANCED_FACE ( 'NONE', ( #45 ), #296, .T. ) ;
#58 = ORIENTED_EDGE ( 'NONE', *, *, #242, .T. ) ;
#59 = VECTOR ( 'NONE', #199, 39.37007874015748100 ) ;
#60 = ORIENTED_EDGE ( 'NONE', *, *, #351, .T. ) ;
#61 = ORIENTED_EDGE ( 'NONE', *, *, #164, .T. ) ;
#62 = ORIENTED_EDGE ( 'NONE', *, *, #349, .T. ) ;
#63 = EDGE_LOOP ( 'NONE', ( #225, #348, #7, #35 ) ) ;
#64 = SURFACE_STYLE_FILL_AREA ( #146 ) ;
#65 = PRODUCT_DEFINITION_CONTEXT ( 'detailed design', #312, 'design' ) ;
#66 = DIRECTION ( 'NONE',  ( -0.0000000000000000000, -0.0000000000000000000, -1.000000000000000000 ) ) ;
#67 = CARTESIAN_POINT ( 'NONE',  ( 0.1111399268190028500, 0.1925000000000000900, -0.2500000000000000000 ) ) ;
#68 = VECTOR ( 'NONE', #297, 39.37007874015748100 ) ;
#69 = ORIENTED_EDGE ( 'NONE', *, *, #319, .F. ) ;
#70 = VECTOR ( 'NONE', #263, 39.37007874015748100 ) ;
#71 = SURFACE_SIDE_STYLE ('',( #64 ) ) ;
#72 = DIRECTION ( 'NONE',  ( 0.5000000000000004400, -0.8660254037844383700, 0.0000000000000000000 ) ) ;
#73 =( NAMED_UNIT ( * ) SI_UNIT ( $, .STERADIAN. ) SOLID_ANGLE_UNIT ( ) );
#74 = ORIENTED_EDGE ( 'NONE', *, *, #301, .T. ) ;
#75 = VECTOR ( 'NONE', #208, 39.37007874015748100 ) ;
#76 = LINE ( 'NONE', #40, #70 ) ;
#77 = ORIENTED_EDGE ( 'NONE', *, *, #254, .T. ) ;
#78 = STYLED_ITEM ( 'NONE', ( #350 ), #305 ) ;
#79 = ORIENTED_EDGE ( 'NONE', *, *, #330, .T. ) ;
#80 = ORIENTED_EDGE ( 'NONE', *, *, #293, .T. ) ;
#81 = DIRECTION ( 'NONE',  ( -0.0000000000000000000, -0.0000000000000000000, -1.000000000000000000 ) ) ;
#82 = FILL_AREA_STYLE_COLOUR ( '', #26 ) ;
#83 = PRESENTATION_STYLE_ASSIGNMENT (( #260 ) ) ;
#84 = CARTESIAN_POINT ( 'NONE',  ( -0.1111399268190029600, -0.1925000000000001400, -0.2500000000000000000 ) ) ;
#85 = CARTESIAN_POINT ( 'NONE',  ( 0.1111399268190029600, -0.1925000000000000900, 0.2500000000000000000 ) ) ;
#86 = ORIENTED_EDGE ( 'NONE', *, *, #313, .T. ) ;
#87 = ORIENTED_EDGE ( 'NONE', *, *, #313, .F. ) ;
#88 = LINE ( 'NONE', #256, #68 ) ;
#89 = CARTESIAN_POINT ( 'NONE',  ( -0.1111399268190030300, 0.1925000000000000600, 0.2500000000000000000 ) ) ;
#90 = ORIENTED_EDGE ( 'NONE', *, *, #271, .T. ) ;
#91 = ORIENTED_EDGE ( 'NONE', *, *, #345, .F. ) ;
#92 = ORIENTED_EDGE ( 'NONE', *, *, #319, .T. ) ;
#93 = CYLINDRICAL_SURFACE ( 'NONE', #203, 0.3125000000000000000 ) ;
#94 = LINE ( 'NONE', #279, #19 ) ;
#95 = VERTEX_POINT ( 'NONE', #167 ) ;
#96 = PLANE ( 'NONE',  #232 ) ;
#97 = DIRECTION ( 'NONE',  ( 1.000000000000000000, 0.0000000000000000000, -0.0000000000000000000 ) ) ;
#98 =( GEOMETRIC_REPRESENTATION_CONTEXT ( 3 ) GLOBAL_UNCERTAINTY_ASSIGNED_CONTEXT ( ( #259 ) ) GLOBAL_UNIT_ASSIGNED_CONTEXT ( ( #213, #44, #214 ) ) REPRESENTATION_CONTEXT ( 'NONE', 'WORKASPACE' ) );
#99 = CARTESIAN_POINT ( 'NONE',  ( -0.2222798536380059800, -6.829619984160656800E-017, -0.2500000000000000000 ) ) ;
#100 = ORIENTED_EDGE ( 'NONE', *, *, #22, .F. ) ;
#101 = ORIENTED_EDGE ( 'NONE', *, *, #293, .F. ) ;
#102 =( LENGTH_UNIT ( ) NAMED_UNIT ( * ) SI_UNIT ( $, .METRE. ) );
#103 = AXIS2_PLACEMENT_3D ( 'NONE', #270, #124, #300 ) ;
#104 = DIRECTION ( 'NONE',  ( 0.0000000000000000000, 0.0000000000000000000, 1.000000000000000000 ) ) ;
#105 = FACE_BOUND ( 'NONE', #147, .T. ) ;
#106 = DIRECTION ( 'NONE',  ( 0.5000000000000000000, -0.8660254037844386000, 0.0000000000000000000 ) ) ;
#107 = VECTOR ( 'NONE', #333, 39.37007874015748100 ) ;
#108 = ORIENTED_EDGE ( 'NONE', *, *, #215, .T. ) ;
#109 = FACE_OUTER_BOUND ( 'NONE', #212, .T. ) ;
#110 = AXIS2_PLACEMENT_3D ( 'NONE', #85, #269, #122 ) ;
#111 = VECTOR ( 'NONE', #339, 39.37007874015748100 ) ;
#112 = AXIS2_PLACEMENT_3D ( 'NONE', #23, #222, #56 ) ;
#113 = FILL_AREA_STYLE_COLOUR ( '', #252 ) ;
#114 = ORIENTED_EDGE ( 'NONE', *, *, #332, .T. ) ;
#115 = ORIENTED_EDGE ( 'NONE', *, *, #180, .T. ) ;
#116 = VECTOR ( 'NONE', #16, 39.37007874015748100 ) ;
#117 = FACE_OUTER_BOUND ( 'NONE', #155, .T. ) ;
#118 = ORIENTED_EDGE ( 'NONE', *, *, #271, .F. ) ;
#119 = PLANE ( 'NONE',  #143 ) ;
#120 = ORIENTED_EDGE ( 'NONE', *, *, #349, .F. ) ;
#121 = CARTESIAN_POINT ( 'NONE',  ( 0.0000000000000000000, 0.0000000000000000000, -0.2500000000000000000 ) ) ;
#122 = DIRECTION ( 'NONE',  ( -0.4999999999999996100, -0.8660254037844388200, 0.0000000000000000000 ) ) ;
#123 = AXIS2_PLACEMENT_3D ( 'NONE', #258, #229, #97 ) ;
#124 = DIRECTION ( 'NONE',  ( 0.0000000000000000000, 0.0000000000000000000, 1.000000000000000000 ) ) ;
#125 = AXIS2_PLACEMENT_3D ( 'NONE', #281, #135, #308 ) ;
#126 = ORIENTED_EDGE ( 'NONE', *, *, #342, .F. ) ;
#127 = FACE_OUTER_BOUND ( 'NONE', #63, .T. ) ;
#128 = AXIS2_PLACEMENT_3D ( 'NONE', #337, #238, #72 ) ;
#129 = VECTOR ( 'NONE', #9, 39.37007874015748100 ) ;
#130 = ORIENTED_EDGE ( 'NONE', *, *, #160, .F. ) ;
#131 = VECTOR ( 'NONE', #166, 39.37007874015748100 ) ;
#132 = EDGE_LOOP ( 'NONE', ( #126, #118, #108, #86 ) ) ;
#133 = DIRECTION ( 'NONE',  ( 0.8660254037844388200, -0.4999999999999997200, 0.0000000000000000000 ) ) ;
#134 = CARTESIAN_POINT ( 'NONE',  ( 0.2222798536380059300, 6.082630298393085800E-017, -0.2500000000000000000 ) ) ;
#135 = DIRECTION ( 'NONE',  ( 0.0000000000000000000, 0.0000000000000000000, 1.000000000000000000 ) ) ;
#136 = ORIENTED_EDGE ( 'NONE', *, *, #332, .F. ) ;
#137 = AXIS2_PLACEMENT_3D ( 'NONE', #220, #66, #52 ) ;
#138 = DIRECTION ( 'NONE',  ( -1.536266079084936400E-016, 1.000000000000000000, 0.0000000000000000000 ) ) ;
#139 =( NAMED_UNIT ( * ) PLANE_ANGLE_UNIT ( ) SI_UNIT ( $, .RADIAN. ) );
#140 = PRODUCT_CONTEXT ( 'NONE', #265, 'mechanical' ) ;
#141 = DIRECTION ( 'NONE',  ( -0.4999999999999996100, -0.8660254037844388200, 0.0000000000000000000 ) ) ;
#142 = VERTEX_POINT ( 'NONE', #209 ) ;
#143 = AXIS2_PLACEMENT_3D ( 'NONE', #149, #326, #177 ) ;
#144 = FACE_OUTER_BOUND ( 'NONE', #184, .T. ) ;
#145 = SURFACE_SIDE_STYLE ('',( #24 ) ) ;
#146 = FILL_AREA_STYLE ('',( #82 ) ) ;
#147 = EDGE_LOOP ( 'NONE', ( #280, #130, #120, #91, #100, #223 ) ) ;
#148 = LINE ( 'NONE', #334, #131 ) ;
#149 = CARTESIAN_POINT ( 'NONE',  ( -0.2222798536380059800, -6.829619984160656800E-017, 0.2500000000000000000 ) ) ;
#150 = FACE_OUTER_BOUND ( 'NONE', #202, .T. ) ;
#151 = CARTESIAN_POINT ( 'NONE',  ( -0.2222798536380059300, -6.829619984160658000E-017, 0.2500000000000000000 ) ) ;
#152 =( GEOMETRIC_REPRESENTATION_CONTEXT ( 3 ) GLOBAL_UNCERTAINTY_ASSIGNED_CONTEXT ( ( #200 ) ) GLOBAL_UNIT_ASSIGNED_CONTEXT ( ( #285, #139, #310 ) ) REPRESENTATION_CONTEXT ( 'NONE', 'WORKASPACE' ) );
#153 = ORIENTED_EDGE ( 'NONE', *, *, #11, .F. ) ;
#154 = EDGE_LOOP ( 'NONE', ( #237, #325, #25, #80 ) ) ;
#155 = EDGE_LOOP ( 'NONE', ( #347, #136 ) ) ;
#156 = MECHANICAL_DESIGN_GEOMETRIC_PRESENTATION_REPRESENTATION (  '', ( #234 ), #152 ) ;
#157 = ORIENTED_EDGE ( 'NONE', *, *, #22, .T. ) ;
#158 = EDGE_LOOP ( 'NONE', ( #46, #201, #77, #90 ) ) ;
#159 = VECTOR ( 'NONE', #15, 39.37007874015748100 ) ;
#160 = EDGE_CURVE ( 'NONE', #230, #323, #311, .T. ) ;
#161 = CARTESIAN_POINT ( 'NONE',  ( 0.3125000000000000000, 3.827021247335478900E-017, -0.2500000000000000000 ) ) ;
#162 = CARTESIAN_POINT ( 'NONE',  ( -0.1111399268190029600, -0.1925000000000001400, 0.2500000000000000000 ) ) ;
#163 = ORIENTED_EDGE ( 'NONE', *, *, #335, .F. ) ;
#164 = EDGE_CURVE ( 'NONE', #341, #3, #320, .T. ) ;
#165 = EDGE_LOOP ( 'NONE', ( #286, #298, #282, #58 ) ) ;
#166 = DIRECTION ( 'NONE',  ( -1.000000000000000000, -1.536266079084936900E-016, 0.0000000000000000000 ) ) ;
#167 = CARTESIAN_POINT ( 'NONE',  ( 0.2222798536380059300, 6.082630298393085800E-017, 0.2500000000000000000 ) ) ;
#168 = CLOSED_SHELL ( 'NONE', ( #49, #267, #299, #253, #57, #324, #295, #47, #221, #54 ) ) ;
#169 = PRODUCT_RELATED_PRODUCT_CATEGORY ( 'part', '', ( #247 ) ) ;
#170 = APPLICATION_PROTOCOL_DEFINITION ( 'draft international standard', 'automotive_design', 1998, #312 ) ;
#171 = VECTOR ( 'NONE', #246, 39.37007874015748100 ) ;
#172 = CARTESIAN_POINT ( 'NONE',  ( 0.3125000000000000000, 3.827021247335478900E-017, 0.2500000000000000000 ) ) ;
#173 = PRESENTATION_LAYER_ASSIGNMENT (  '', '', ( #234 ) ) ;
#174 = PRODUCT_DEFINITION_FORMATION_WITH_SPECIFIED_SOURCE ( 'ANY', '', #247, .NOT_KNOWN. ) ;
#175 =( LENGTH_UNIT ( ) NAMED_UNIT ( * ) SI_UNIT ( $, .METRE. ) );
#176 = LINE ( 'NONE', #195, #116 ) ;
#177 = DIRECTION ( 'NONE',  ( -0.5000000000000000000, 0.8660254037844386000, 0.0000000000000000000 ) ) ;
#178 = CARTESIAN_POINT ( 'NONE',  ( 0.1111399268190028500, 0.1925000000000000900, 0.2500000000000000000 ) ) ;
#179 = DIMENSIONAL_EXPONENTS ( 1.000000000000000000, 0.0000000000000000000, 0.0000000000000000000, 0.0000000000000000000, 0.0000000000000000000, 0.0000000000000000000, 0.0000000000000000000 ) ;
#180 = EDGE_CURVE ( 'NONE', #196, #8, #338, .T. ) ;
#181 = LINE ( 'NONE', #343, #159 ) ;
#182 = LINE ( 'NONE', #316, #111 ) ;
#183 = CARTESIAN_POINT ( 'NONE',  ( -0.2222798536380059800, -6.829619984160656800E-017, -0.2500000000000000000 ) ) ;
#184 = EDGE_LOOP ( 'NONE', ( #12, #206, #114, #163 ) ) ;
#185 = CARTESIAN_POINT ( 'NONE',  ( 0.2222798536380059300, 6.082630298393085800E-017, 0.2500000000000000000 ) ) ;
#186 = VECTOR ( 'NONE', #228, 39.37007874015748100 ) ;
#187 = DIRECTION ( 'NONE',  ( -0.0000000000000000000, -0.0000000000000000000, -1.000000000000000000 ) ) ;
#188 = AXIS2_PLACEMENT_3D ( 'NONE', #321, #50, #248 ) ;
#189 = CARTESIAN_POINT ( 'NONE',  ( 0.0000000000000000000, 0.0000000000000000000, 0.0000000000000000000 ) ) ;
#190 = PRODUCT_DEFINITION ( 'UNKNOWN', '', #174, #65 ) ;
#191 = AXIS2_PLACEMENT_3D ( 'NONE', #189, #104, #287 ) ;
#192 = PLANE ( 'NONE',  #188 ) ;
#193 = EDGE_CURVE ( 'NONE', #29, #274, #255, .T. ) ;
#194 = DIMENSIONAL_EXPONENTS ( 1.000000000000000000, 0.0000000000000000000, 0.0000000000000000000, 0.0000000000000000000, 0.0000000000000000000, 0.0000000000000000000, 0.0000000000000000000 ) ;
#195 = CARTESIAN_POINT ( 'NONE',  ( 0.1111399268190029600, -0.1925000000000000900, 0.2500000000000000000 ) ) ;
#196 = VERTEX_POINT ( 'NONE', #268 ) ;
#197 = DIRECTION ( 'NONE',  ( -0.4999999999999996100, -0.8660254037844388200, 0.0000000000000000000 ) ) ;
#198 = DIRECTION ( 'NONE',  ( 1.536266079084936900E-016, -1.000000000000000000, 0.0000000000000000000 ) ) ;
#199 = DIRECTION ( 'NONE',  ( -0.0000000000000000000, -0.0000000000000000000, -1.000000000000000000 ) ) ;
#200 = UNCERTAINTY_MEASURE_WITH_UNIT (LENGTH_MEASURE( 1.000000000000000100E-005 ), #285, 'distance_accuracy_value', 'NONE');
#201 = ORIENTED_EDGE ( 'NONE', *, *, #242, .F. ) ;
#202 = EDGE_LOOP ( 'NONE', ( #79, #211 ) ) ;
#203 = AXIS2_PLACEMENT_3D ( 'NONE', #48, #81, #292 ) ;
#204 = DIRECTION ( 'NONE',  ( 0.0000000000000000000, 0.0000000000000000000, 1.000000000000000000 ) ) ;
#205 = DIRECTION ( 'NONE',  ( -0.0000000000000000000, -0.0000000000000000000, -1.000000000000000000 ) ) ;
#206 = ORIENTED_EDGE ( 'NONE', *, *, #243, .T. ) ;
#207 =( GEOMETRIC_REPRESENTATION_CONTEXT ( 3 ) GLOBAL_UNCERTAINTY_ASSIGNED_CONTEXT ( ( #53 ) ) GLOBAL_UNIT_ASSIGNED_CONTEXT ( ( #39, #239, #73 ) ) REPRESENTATION_CONTEXT ( 'NONE', 'WORKASPACE' ) );
#208 = DIRECTION ( 'NONE',  ( -0.0000000000000000000, -0.0000000000000000000, -1.000000000000000000 ) ) ;
#209 = CARTESIAN_POINT ( 'NONE',  ( -0.1111399268190030300, 0.1925000000000000600, 0.2500000000000000000 ) ) ;
#210 = PLANE ( 'NONE',  #123 ) ;
#211 = ORIENTED_EDGE ( 'NONE', *, *, #315, .T. ) ;
#212 = EDGE_LOOP ( 'NONE', ( #153, #87, #157, #336 ) ) ;
#213 =( CONVERSION_BASED_UNIT ( 'INCH', #302 ) LENGTH_UNIT ( ) NAMED_UNIT ( #179 ) );
#214 =( NAMED_UNIT ( * ) SI_UNIT ( $, .STERADIAN. ) SOLID_ANGLE_UNIT ( ) );
#215 = EDGE_CURVE ( 'NONE', #95, #314, #227, .T. ) ;
#216 = CARTESIAN_POINT ( 'NONE',  ( 0.3125000000000000000, 3.827021247335478900E-017, 0.2500000000000000000 ) ) ;
#217 = FACE_OUTER_BOUND ( 'NONE', #154, .T. ) ;
#218 = PLANE ( 'NONE',  #110 ) ;
#219 = PRODUCT_DEFINITION_SHAPE ( 'NONE', 'NONE',  #190 ) ;
#220 = CARTESIAN_POINT ( 'NONE',  ( 0.0000000000000000000, 0.0000000000000000000, 0.2500000000000000000 ) ) ;
#221 = ADVANCED_FACE ( 'NONE', ( #217 ), #96, .T. ) ;
#222 = DIRECTION ( 'NONE',  ( 0.0000000000000000000, 0.0000000000000000000, 1.000000000000000000 ) ) ;
#223 = ORIENTED_EDGE ( 'NONE', *, *, #215, .F. ) ;
#224 = MECHANICAL_DESIGN_GEOMETRIC_PRESENTATION_REPRESENTATION (  '', ( #78 ), #207 ) ;
#225 = ORIENTED_EDGE ( 'NONE', *, *, #243, .F. ) ;
#226 = ORIENTED_EDGE ( 'NONE', *, *, #11, .T. ) ;
#227 = LINE ( 'NONE', #185, #186 ) ;
#228 = DIRECTION ( 'NONE',  ( -0.5000000000000004400, 0.8660254037844383700, 0.0000000000000000000 ) ) ;
#229 = DIRECTION ( 'NONE',  ( 0.0000000000000000000, 0.0000000000000000000, 1.000000000000000000 ) ) ;
#230 = VERTEX_POINT ( 'NONE', #257 ) ;
#231 = DIRECTION ( 'NONE',  ( 0.5000000000000000000, -0.8660254037844386000, 0.0000000000000000000 ) ) ;
#232 = AXIS2_PLACEMENT_3D ( 'NONE', #278, #133, #306 ) ;
#233 = CIRCLE ( 'NONE', #125, 0.3125000000000000000 ) ;
#234 = STYLED_ITEM ( 'NONE', ( #83 ), #288 ) ;
#235 = CARTESIAN_POINT ( 'NONE',  ( -0.2222798536380059800, -6.829619984160656800E-017, 0.2500000000000000000 ) ) ;
#236 = DIRECTION ( 'NONE',  ( 1.000000000000000000, 1.536266079084936400E-016, 0.0000000000000000000 ) ) ;
#237 = ORIENTED_EDGE ( 'NONE', *, *, #164, .F. ) ;
#238 = DIRECTION ( 'NONE',  ( -0.8660254037844383700, -0.5000000000000004400, 0.0000000000000000000 ) ) ;
#239 =( NAMED_UNIT ( * ) PLANE_ANGLE_UNIT ( ) SI_UNIT ( $, .RADIAN. ) );
#240 = CARTESIAN_POINT ( 'NONE',  ( -0.2222798536380059800, -6.829619984160656800E-017, 0.2500000000000000000 ) ) ;
#241 = VECTOR ( 'NONE', #55, 39.37007874015748100 ) ;
#242 = EDGE_CURVE ( 'NONE', #323, #196, #181, .T. ) ;
#243 = EDGE_CURVE ( 'NONE', #20, #274, #294, .T. ) ;
#244 = APPLICATION_PROTOCOL_DEFINITION ( 'draft international standard', 'automotive_design', 1998, #265 ) ;
#245 = ORIENTED_EDGE ( 'NONE', *, *, #342, .T. ) ;
#246 = DIRECTION ( 'NONE',  ( -0.0000000000000000000, -0.0000000000000000000, -1.000000000000000000 ) ) ;
#247 = PRODUCT ( '217-3262-STEP', '217-3262-STEP', '', ( #140 ) ) ;
#248 = DIRECTION ( 'NONE',  ( 1.000000000000000000, 0.0000000000000000000, -0.0000000000000000000 ) ) ;
#249 = DIMENSIONAL_EXPONENTS ( 1.000000000000000000, 0.0000000000000000000, 0.0000000000000000000, 0.0000000000000000000, 0.0000000000000000000, 0.0000000000000000000, 0.0000000000000000000 ) ;
#250 = VERTEX_POINT ( 'NONE', #266 ) ;
#251 = CARTESIAN_POINT ( 'NONE',  ( -0.1111399268190030300, 0.1925000000000000600, 0.2500000000000000000 ) ) ;
#252 = COLOUR_RGB ( '',0.4941176470588235500, 0.4941176470588235500, 0.4941176470588235500 ) ;
#253 = ADVANCED_FACE ( 'NONE', ( #127 ), #93, .T. ) ;
#254 = EDGE_CURVE ( 'NONE', #323, #95, #176, .T. ) ;
#255 = CIRCLE ( 'NONE', #289, 0.3125000000000000000 ) ;
#256 = CARTESIAN_POINT ( 'NONE',  ( 0.1111399268190028500, 0.1925000000000000900, 0.2500000000000000000 ) ) ;
#257 = CARTESIAN_POINT ( 'NONE',  ( -0.1111399268190029600, -0.1925000000000001400, 0.2500000000000000000 ) ) ;
#258 = CARTESIAN_POINT ( 'NONE',  ( 0.0000000000000000000, 0.0000000000000000000, -0.2500000000000000000 ) ) ;
#259 = UNCERTAINTY_MEASURE_WITH_UNIT (LENGTH_MEASURE( 1.000000000000000100E-005 ), #213, 'distance_accuracy_value', 'NONE');
#260 = SURFACE_STYLE_USAGE ( .BOTH. , #71 ) ;
#261 = LINE ( 'NONE', #99, #273 ) ;
#262 = CARTESIAN_POINT ( 'NONE',  ( -0.1111399268190030300, 0.1925000000000000600, -0.2500000000000000000 ) ) ;
#263 = DIRECTION ( 'NONE',  ( -0.5000000000000004400, 0.8660254037844383700, 0.0000000000000000000 ) ) ;
#264 = LENGTH_MEASURE_WITH_UNIT ( LENGTH_MEASURE( 0.02539999999999999900 ), #102 );
#265 = APPLICATION_CONTEXT ( 'automotive_design' ) ;
#266 = CARTESIAN_POINT ( 'NONE',  ( -0.3125000000000000000, 0.0000000000000000000, 0.2500000000000000000 ) ) ;
#267 = ADVANCED_FACE ( 'NONE', ( #150, #105 ), #192, .T. ) ;
#268 = CARTESIAN_POINT ( 'NONE',  ( 0.1111399268190029600, -0.1925000000000000900, -0.2500000000000000000 ) ) ;
#269 = DIRECTION ( 'NONE',  ( -0.8660254037844388200, 0.4999999999999996100, 0.0000000000000000000 ) ) ;
#270 = CARTESIAN_POINT ( 'NONE',  ( 0.0000000000000000000, 0.0000000000000000000, -0.2500000000000000000 ) ) ;
#271 = EDGE_CURVE ( 'NONE', #95, #8, #37, .T. ) ;
#272 = LENGTH_MEASURE_WITH_UNIT ( LENGTH_MEASURE( 0.02539999999999999900 ), #175 );
#273 = VECTOR ( 'NONE', #231, 39.37007874015748900 ) ;
#274 = VERTEX_POINT ( 'NONE', #161 ) ;
#275 = PRESENTATION_LAYER_ASSIGNMENT (  '', '', ( #78 ) ) ;
#276 = VECTOR ( 'NONE', #197, 39.37007874015748900 ) ;
#277 = AXIS2_PLACEMENT_3D ( 'NONE', #283, #138, #309 ) ;
#278 = CARTESIAN_POINT ( 'NONE',  ( -0.1111399268190030300, 0.1925000000000000600, 0.2500000000000000000 ) ) ;
#279 = CARTESIAN_POINT ( 'NONE',  ( 0.1111399268190028500, 0.1925000000000000900, 0.2500000000000000000 ) ) ;
#280 = ORIENTED_EDGE ( 'NONE', *, *, #254, .F. ) ;
#281 = CARTESIAN_POINT ( 'NONE',  ( 0.0000000000000000000, 0.0000000000000000000, 0.2500000000000000000 ) ) ;
#282 = ORIENTED_EDGE ( 'NONE', *, *, #160, .T. ) ;
#283 = CARTESIAN_POINT ( 'NONE',  ( -0.1111399268190029600, -0.1925000000000001400, 0.2500000000000000000 ) ) ;
#284 = AXIS2_PLACEMENT_3D ( 'NONE', #178, #198, #21 ) ;
#285 =( CONVERSION_BASED_UNIT ( 'INCH', #264 ) LENGTH_UNIT ( ) NAMED_UNIT ( #194 ) );
#286 = ORIENTED_EDGE ( 'NONE', *, *, #351, .F. ) ;
#287 = DIRECTION ( 'NONE',  ( 1.000000000000000000, 0.0000000000000000000, 0.0000000000000000000 ) ) ;
#288 = MANIFOLD_SOLID_BREP ( 'Boss-Extrude1', #168 ) ;
#289 = AXIS2_PLACEMENT_3D ( 'NONE', #121, #204, #30 ) ;
#290 = VECTOR ( 'NONE', #187, 39.37007874015748100 ) ;
#291 = FILL_AREA_STYLE ('',( #113 ) ) ;
#292 = DIRECTION ( 'NONE',  ( -1.000000000000000000, 0.0000000000000000000, 0.0000000000000000000 ) ) ;
#293 = EDGE_CURVE ( 'NONE', #43, #3, #303, .T. ) ;
#294 = LINE ( 'NONE', #216, #171 ) ;
#295 = ADVANCED_FACE ( 'NONE', ( #17 ), #38, .T. ) ;
#296 = PLANE ( 'NONE',  #277 ) ;
#297 = DIRECTION ( 'NONE',  ( -1.000000000000000000, -1.536266079084936900E-016, 0.0000000000000000000 ) ) ;
#298 = ORIENTED_EDGE ( 'NONE', *, *, #301, .F. ) ;
#299 = ADVANCED_FACE ( 'NONE', ( #117, #322 ), #210, .F. ) ;
#300 = DIRECTION ( 'NONE',  ( 1.000000000000000000, 0.0000000000000000000, 0.0000000000000000000 ) ) ;
#301 = EDGE_CURVE ( 'NONE', #230, #51, #41, .T. ) ;
#302 = LENGTH_MEASURE_WITH_UNIT ( LENGTH_MEASURE( 0.02539999999999999900 ), #13 );
#303 = LINE ( 'NONE', #235, #129 ) ;
#304 = VECTOR ( 'NONE', #236, 39.37007874015748100 ) ;
#305 = ADVANCED_BREP_SHAPE_REPRESENTATION ( '217-3262-STEP', ( #288, #191 ), #98 ) ;
#306 = DIRECTION ( 'NONE',  ( 0.4999999999999997200, 0.8660254037844388200, 0.0000000000000000000 ) ) ;
#307 = CARTESIAN_POINT ( 'NONE',  ( 0.1111399268190028500, 0.1925000000000000900, 0.2500000000000000000 ) ) ;
#308 = DIRECTION ( 'NONE',  ( 1.000000000000000000, 0.0000000000000000000, 0.0000000000000000000 ) ) ;
#309 = DIRECTION ( 'NONE',  ( -1.000000000000000000, -1.536266079084936400E-016, 0.0000000000000000000 ) ) ;
#310 =( NAMED_UNIT ( * ) SI_UNIT ( $, .STERADIAN. ) SOLID_ANGLE_UNIT ( ) );
#311 = LINE ( 'NONE', #36, #304 ) ;
#312 = APPLICATION_CONTEXT ( 'automotive_design' ) ;
#313 = EDGE_CURVE ( 'NONE', #314, #328, #94, .T. ) ;
#314 = VERTEX_POINT ( 'NONE', #307 ) ;
#315 = EDGE_CURVE ( 'NONE', #20, #250, #233, .T. ) ;
#316 = CARTESIAN_POINT ( 'NONE',  ( -0.1111399268190029600, -0.1925000000000001400, -0.2500000000000000000 ) ) ;
#317 = VECTOR ( 'NONE', #106, 39.37007874015748900 ) ;
#318 = SURFACE_STYLE_USAGE ( .BOTH. , #145 ) ;
#319 = EDGE_CURVE ( 'NONE', #3, #51, #261, .T. ) ;
#320 = LINE ( 'NONE', #344, #276 ) ;
#321 = CARTESIAN_POINT ( 'NONE',  ( 0.0000000000000000000, 0.0000000000000000000, 0.2500000000000000000 ) ) ;
#322 = FACE_BOUND ( 'NONE', #1, .T. ) ;
#323 = VERTEX_POINT ( 'NONE', #32 ) ;
#324 = ADVANCED_FACE ( 'NONE', ( #14 ), #218, .T. ) ;
#325 = ORIENTED_EDGE ( 'NONE', *, *, #340, .F. ) ;
#326 = DIRECTION ( 'NONE',  ( 0.8660254037844387100, 0.5000000000000001100, -0.0000000000000000000 ) ) ;
#327 = CARTESIAN_POINT ( 'NONE',  ( -0.3125000000000000000, 0.0000000000000000000, -0.2500000000000000000 ) ) ;
#328 = VERTEX_POINT ( 'NONE', #67 ) ;
#329 = SHAPE_DEFINITION_REPRESENTATION ( #219, #305 ) ;
#330 = EDGE_CURVE ( 'NONE', #250, #20, #5, .T. ) ;
#331 = VECTOR ( 'NONE', #141, 39.37007874015748900 ) ;
#332 = EDGE_CURVE ( 'NONE', #274, #29, #10, .T. ) ;
#333 = DIRECTION ( 'NONE',  ( -0.0000000000000000000, -0.0000000000000000000, -1.000000000000000000 ) ) ;
#334 = CARTESIAN_POINT ( 'NONE',  ( 0.1111399268190028500, 0.1925000000000000900, -0.2500000000000000000 ) ) ;
#335 = EDGE_CURVE ( 'NONE', #250, #29, #34, .T. ) ;
#336 = ORIENTED_EDGE ( 'NONE', *, *, #340, .T. ) ;
#337 = CARTESIAN_POINT ( 'NONE',  ( 0.2222798536380059300, 6.082630298393085800E-017, 0.2500000000000000000 ) ) ;
#338 = LINE ( 'NONE', #18, #241 ) ;
#339 = DIRECTION ( 'NONE',  ( 1.000000000000000000, 1.536266079084936400E-016, 0.0000000000000000000 ) ) ;
#340 = EDGE_CURVE ( 'NONE', #142, #341, #27, .T. ) ;
#341 = VERTEX_POINT ( 'NONE', #262 ) ;
#342 = EDGE_CURVE ( 'NONE', #8, #328, #76, .T. ) ;
#343 = CARTESIAN_POINT ( 'NONE',  ( 0.1111399268190029600, -0.1925000000000000900, 0.2500000000000000000 ) ) ;
#344 = CARTESIAN_POINT ( 'NONE',  ( -0.1111399268190030300, 0.1925000000000000600, -0.2500000000000000000 ) ) ;
#345 = EDGE_CURVE ( 'NONE', #142, #43, #33, .T. ) ;
#346 = CARTESIAN_POINT ( 'NONE',  ( -0.3125000000000000000, 0.0000000000000000000, 0.2500000000000000000 ) ) ;
#347 = ORIENTED_EDGE ( 'NONE', *, *, #193, .F. ) ;
#348 = ORIENTED_EDGE ( 'NONE', *, *, #330, .F. ) ;
#349 = EDGE_CURVE ( 'NONE', #43, #230, #31, .T. ) ;
#350 = PRESENTATION_STYLE_ASSIGNMENT (( #318 ) ) ;
#351 = EDGE_CURVE ( 'NONE', #51, #196, #182, .T. ) ;
ENDSEC;
END-ISO-10303-21;
