ISO-10303-21;
HEADER;
FILE_DESCRIPTION (( 'STEP AP214' ),
    '1' );
FILE_NAME ('217-3261-STEP.STEP',
    '2013-12-06T21:09:17',
    ( '' ),
    ( '' ),
    'SwSTEP 2.0',
    'SolidWorks 2013',
    '' );
FILE_SCHEMA (( 'AUTOMOTIVE_DESIGN' ));
ENDSEC;

DATA;
#1 = ORIENTED_EDGE ( 'NONE', *, *, #65, .F. ) ;
#2 = FACE_BOUND ( 'NONE', #184, .T. ) ;
#3 = ORIENTED_EDGE ( 'NONE', *, *, #209, .T. ) ;
#4 = CIRCLE ( 'NONE', #62, 0.3838582677165354200 ) ;
#5 = CARTESIAN_POINT ( 'NONE',  ( 0.0000000000000000000, 0.0000000000000000000, 0.2500000000000000000 ) ) ;
#6 = EDGE_CURVE ( 'NONE', #72, #242, #246, .T. ) ;
#7 = EDGE_LOOP ( 'NONE', ( #224, #230, #240, #262 ) ) ;
#8 = CARTESIAN_POINT ( 'NONE',  ( 0.0000000000000000000, 0.0000000000000000000, 0.2500000000000000000 ) ) ;
#9 = CARTESIAN_POINT ( 'NONE',  ( 0.1472243186433544700, 0.2550000000000001700, 0.2500000000000000000 ) ) ;
#10 = VERTEX_POINT ( 'NONE', #207 ) ;
#11 = CARTESIAN_POINT ( 'NONE',  ( 0.3838582677165354200, 4.700907988853029100E-017, 0.2500000000000000000 ) ) ;
#12 = DIRECTION ( 'NONE',  ( -1.000000000000000000, 0.0000000000000000000, 0.0000000000000000000 ) ) ;
#13 = ORIENTED_EDGE ( 'NONE', *, *, #209, .F. ) ;
#14 = PRODUCT_DEFINITION_SHAPE ( 'NONE', 'NONE',  #193 ) ;
#15 = AXIS2_PLACEMENT_3D ( 'NONE', #202, #26, #233 ) ;
#16 = AXIS2_PLACEMENT_3D ( 'NONE', #8, #213, #40 ) ;
#17 = FACE_OUTER_BOUND ( 'NONE', #151, .T. ) ;
#18 = PRESENTATION_STYLE_ASSIGNMENT (( #243 ) ) ;
#19 = EDGE_CURVE ( 'NONE', #242, #147, #189, .T. ) ;
#20 = FACE_OUTER_BOUND ( 'NONE', #84, .T. ) ;
#21 =( LENGTH_UNIT ( ) NAMED_UNIT ( * ) SI_UNIT ( $, .METRE. ) );
#22 = LINE ( 'NONE', #266, #107 ) ;
#23 = CARTESIAN_POINT ( 'NONE',  ( -0.1472243186433545600, -0.2550000000000000000, 0.2500000000000000000 ) ) ;
#24 = ORIENTED_EDGE ( 'NONE', *, *, #170, .F. ) ;
#25 = EDGE_CURVE ( 'NONE', #147, #334, #225, .T. ) ;
#26 = DIRECTION ( 'NONE',  ( 0.8660254037844387100, -0.4999999999999999400, 0.0000000000000000000 ) ) ;
#27 = ORIENTED_EDGE ( 'NONE', *, *, #25, .F. ) ;
#28 = EDGE_LOOP ( 'NONE', ( #311, #281, #64, #250, #102, #231 ) ) ;
#29 = VECTOR ( 'NONE', #297, 39.37007874015748100 ) ;
#30 = EDGE_CURVE ( 'NONE', #334, #54, #261, .T. ) ;
#31 = FACE_OUTER_BOUND ( 'NONE', #132, .T. ) ;
#32 = ORIENTED_EDGE ( 'NONE', *, *, #194, .F. ) ;
#33 = ADVANCED_FACE ( 'NONE', ( #174 ), #331, .T. ) ;
#34 = VECTOR ( 'NONE', #118, 39.37007874015748100 ) ;
#35 = EDGE_CURVE ( 'NONE', #54, #158, #105, .T. ) ;
#36 = CLOSED_SHELL ( 'NONE', ( #269, #336, #339, #317, #46, #318, #285, #322, #295, #33 ) ) ;
#37 = AXIS2_PLACEMENT_3D ( 'NONE', #120, #310, #320 ) ;
#38 = ADVANCED_BREP_SHAPE_REPRESENTATION ( '217-3261-STEP', ( #252, #232 ), #301 ) ;
#39 = VECTOR ( 'NONE', #216, 39.37007874015748100 ) ;
#40 = DIRECTION ( 'NONE',  ( 1.000000000000000000, 0.0000000000000000000, 0.0000000000000000000 ) ) ;
#41 = DIRECTION ( 'NONE',  ( 0.0000000000000000000, 0.0000000000000000000, 1.000000000000000000 ) ) ;
#42 = SURFACE_SIDE_STYLE ('',( #103 ) ) ;
#43 = EDGE_CURVE ( 'NONE', #158, #72, #114, .T. ) ;
#44 = LINE ( 'NONE', #108, #292 ) ;
#45 = DIRECTION ( 'NONE',  ( -0.8660254037844386000, -0.5000000000000002200, 0.0000000000000000000 ) ) ;
#46 = ADVANCED_FACE ( 'NONE', ( #66 ), #348, .T. ) ;
#47 = FACE_OUTER_BOUND ( 'NONE', #323, .T. ) ;
#48 = DIRECTION ( 'NONE',  ( 0.0000000000000000000, -0.0000000000000000000, 1.000000000000000000 ) ) ;
#49 = AXIS2_PLACEMENT_3D ( 'NONE', #228, #60, #258 ) ;
#50 = AXIS2_PLACEMENT_3D ( 'NONE', #23, #58, #48 ) ;
#51 = LINE ( 'NONE', #340, #39 ) ;
#52 =( NAMED_UNIT ( * ) SI_UNIT ( $, .STERADIAN. ) SOLID_ANGLE_UNIT ( ) );
#53 = UNCERTAINTY_MEASURE_WITH_UNIT (LENGTH_MEASURE( 1.000000000000000100E-005 ), #217, 'distance_accuracy_value', 'NONE');
#54 = VERTEX_POINT ( 'NONE', #116 ) ;
#55 = EDGE_CURVE ( 'NONE', #286, #72, #123, .T. ) ;
#56 = DIRECTION ( 'NONE',  ( -0.5000000000000001100, 0.8660254037844384900, 0.0000000000000000000 ) ) ;
#57 = DIRECTION ( 'NONE',  ( -0.0000000000000000000, -0.0000000000000000000, -1.000000000000000000 ) ) ;
#58 = DIRECTION ( 'NONE',  ( 0.0000000000000000000, 1.000000000000000000, 0.0000000000000000000 ) ) ;
#59 = EDGE_CURVE ( 'NONE', #309, #242, #95, .T. ) ;
#60 = DIRECTION ( 'NONE',  ( 0.0000000000000000000, 0.0000000000000000000, 1.000000000000000000 ) ) ;
#61 = LINE ( 'NONE', #100, #345 ) ;
#62 = AXIS2_PLACEMENT_3D ( 'NONE', #214, #41, #241 ) ;
#63 = CARTESIAN_POINT ( 'NONE',  ( 0.0000000000000000000, 0.0000000000000000000, 0.2500000000000000000 ) ) ;
#64 = ORIENTED_EDGE ( 'NONE', *, *, #25, .T. ) ;
#65 = EDGE_CURVE ( 'NONE', #10, #147, #44, .T. ) ;
#66 = FACE_OUTER_BOUND ( 'NONE', #7, .T. ) ;
#67 = DIRECTION ( 'NONE',  ( -0.0000000000000000000, -0.0000000000000000000, -1.000000000000000000 ) ) ;
#68 = EDGE_CURVE ( 'NONE', #212, #92, #4, .T. ) ;
#69 = DIRECTION ( 'NONE',  ( -0.5000000000000001100, 0.8660254037844384900, 0.0000000000000000000 ) ) ;
#70 = VECTOR ( 'NONE', #349, 39.37007874015748900 ) ;
#71 = EDGE_CURVE ( 'NONE', #303, #334, #256, .T. ) ;
#72 = VERTEX_POINT ( 'NONE', #165 ) ;
#73 =( GEOMETRIC_REPRESENTATION_CONTEXT ( 3 ) GLOBAL_UNCERTAINTY_ASSIGNED_CONTEXT ( ( #342 ) ) GLOBAL_UNIT_ASSIGNED_CONTEXT ( ( #271, #222, #52 ) ) REPRESENTATION_CONTEXT ( 'NONE', 'WORKASPACE' ) );
#74 = DIRECTION ( 'NONE',  ( 1.000000000000000000, 0.0000000000000000000, 0.0000000000000000000 ) ) ;
#75 =( LENGTH_UNIT ( ) NAMED_UNIT ( * ) SI_UNIT ( $, .METRE. ) );
#76 = DIRECTION ( 'NONE',  ( 0.5000000000000001100, -0.8660254037844384900, 0.0000000000000000000 ) ) ;
#77 = PLANE ( 'NONE',  #326 ) ;
#78 = EDGE_CURVE ( 'NONE', #142, #54, #239, .T. ) ;
#79 = VECTOR ( 'NONE', #247, 39.37007874015748100 ) ;
#80 = DIRECTION ( 'NONE',  ( -0.0000000000000000000, -0.0000000000000000000, -1.000000000000000000 ) ) ;
#81 = STYLED_ITEM ( 'NONE', ( #148 ), #252 ) ;
#82 = CYLINDRICAL_SURFACE ( 'NONE', #138, 0.3838582677165354200 ) ;
#83 = EDGE_CURVE ( 'NONE', #341, #158, #219, .T. ) ;
#84 = EDGE_LOOP ( 'NONE', ( #259, #154, #304, #344 ) ) ;
#85 = ORIENTED_EDGE ( 'NONE', *, *, #143, .F. ) ;
#86 = CARTESIAN_POINT ( 'NONE',  ( 0.0000000000000000000, 0.0000000000000000000, 0.0000000000000000000 ) ) ;
#87 = AXIS2_PLACEMENT_3D ( 'NONE', #130, #45, #76 ) ;
#88 = VECTOR ( 'NONE', #199, 39.37007874015748100 ) ;
#89 = CARTESIAN_POINT ( 'NONE',  ( 0.0000000000000000000, 0.0000000000000000000, 0.2500000000000000000 ) ) ;
#90 = VECTOR ( 'NONE', #74, 39.37007874015748100 ) ;
#91 = ORIENTED_EDGE ( 'NONE', *, *, #170, .T. ) ;
#92 = VERTEX_POINT ( 'NONE', #185 ) ;
#93 = CARTESIAN_POINT ( 'NONE',  ( 0.1472243186433544700, 0.2550000000000001700, 0.2500000000000000000 ) ) ;
#94 = CARTESIAN_POINT ( 'NONE',  ( 0.1472243186433544700, 0.2550000000000001700, -0.2500000000000000000 ) ) ;
#95 = LINE ( 'NONE', #136, #79 ) ;
#96 = AXIS2_PLACEMENT_3D ( 'NONE', #176, #347, #288 ) ;
#97 = FACE_OUTER_BOUND ( 'NONE', #329, .T. ) ;
#98 = SURFACE_SIDE_STYLE ('',( #139 ) ) ;
#99 = UNCERTAINTY_MEASURE_WITH_UNIT (LENGTH_MEASURE( 1.000000000000000100E-005 ), #316, 'distance_accuracy_value', 'NONE');
#100 = CARTESIAN_POINT ( 'NONE',  ( -0.2944486372867092200, 2.527242374660742700E-017, 0.2500000000000000000 ) ) ;
#101 = CARTESIAN_POINT ( 'NONE',  ( -0.1472243186433545600, -0.2550000000000000000, 0.2500000000000000000 ) ) ;
#102 = ORIENTED_EDGE ( 'NONE', *, *, #35, .T. ) ;
#103 = SURFACE_STYLE_FILL_AREA ( #137 ) ;
#104 = CARTESIAN_POINT ( 'NONE',  ( -0.3838582677165354200, 0.0000000000000000000, -0.2500000000000000000 ) ) ;
#105 = LINE ( 'NONE', #332, #152 ) ;
#106 = DIRECTION ( 'NONE',  ( -0.8660254037844387100, 0.5000000000000001100, 0.0000000000000000000 ) ) ;
#107 = VECTOR ( 'NONE', #69, 39.37007874015748900 ) ;
#108 = CARTESIAN_POINT ( 'NONE',  ( 0.2944486372867092200, 1.028089255413782600E-017, 0.2500000000000000000 ) ) ;
#109 = CIRCLE ( 'NONE', #16, 0.3838582677165354200 ) ;
#110 = CARTESIAN_POINT ( 'NONE',  ( -0.2944486372867092800, 1.707404996040164500E-017, 0.2500000000000000000 ) ) ;
#111 = ORIENTED_EDGE ( 'NONE', *, *, #284, .T. ) ;
#112 = DIRECTION ( 'NONE',  ( 1.000000000000000000, 0.0000000000000000000, 0.0000000000000000000 ) ) ;
#113 = PRESENTATION_LAYER_ASSIGNMENT (  '', '', ( #81 ) ) ;
#114 = LINE ( 'NONE', #145, #88 ) ;
#115 = FACE_OUTER_BOUND ( 'NONE', #351, .T. ) ;
#116 = CARTESIAN_POINT ( 'NONE',  ( -0.1472243186433546400, 0.2550000000000000600, -0.2500000000000000000 ) ) ;
#117 = DIRECTION ( 'NONE',  ( 1.000000000000000000, 0.0000000000000000000, -0.0000000000000000000 ) ) ;
#118 = DIRECTION ( 'NONE',  ( -0.0000000000000000000, -0.0000000000000000000, -1.000000000000000000 ) ) ;
#119 = DIRECTION ( 'NONE',  ( 0.5000000000000000000, 0.8660254037844386000, 0.0000000000000000000 ) ) ;
#120 = CARTESIAN_POINT ( 'NONE',  ( 0.0000000000000000000, 0.0000000000000000000, 0.2500000000000000000 ) ) ;
#121 = LENGTH_MEASURE_WITH_UNIT ( LENGTH_MEASURE( 0.02539999999999999900 ), #21 );
#122 = ORIENTED_EDGE ( 'NONE', *, *, #234, .F. ) ;
#123 = LINE ( 'NONE', #227, #29 ) ;
#124 = FACE_OUTER_BOUND ( 'NONE', #149, .T. ) ;
#125 = LINE ( 'NONE', #161, #206 ) ;
#126 = DIRECTION ( 'NONE',  ( 1.000000000000000000, 0.0000000000000000000, 0.0000000000000000000 ) ) ;
#127 =( LENGTH_UNIT ( ) NAMED_UNIT ( * ) SI_UNIT ( $, .METRE. ) );
#128 = DIMENSIONAL_EXPONENTS ( 1.000000000000000000, 0.0000000000000000000, 0.0000000000000000000, 0.0000000000000000000, 0.0000000000000000000, 0.0000000000000000000, 0.0000000000000000000 ) ;
#129 = CARTESIAN_POINT ( 'NONE',  ( -0.2944486372867092200, 2.527242374660742700E-017, 0.2500000000000000000 ) ) ;
#130 = CARTESIAN_POINT ( 'NONE',  ( 0.2944486372867092200, 1.028089255413782600E-017, 0.2500000000000000000 ) ) ;
#131 = DIRECTION ( 'NONE',  ( -0.0000000000000000000, -0.0000000000000000000, -1.000000000000000000 ) ) ;
#132 = EDGE_LOOP ( 'NONE', ( #27, #1, #111, #196 ) ) ;
#133 = DIMENSIONAL_EXPONENTS ( 1.000000000000000000, 0.0000000000000000000, 0.0000000000000000000, 0.0000000000000000000, 0.0000000000000000000, 0.0000000000000000000, 0.0000000000000000000 ) ;
#134 = CARTESIAN_POINT ( 'NONE',  ( 0.1472243186433544700, 0.2550000000000001700, -0.2500000000000000000 ) ) ;
#135 = CIRCLE ( 'NONE', #49, 0.3838582677165354200 ) ;
#136 = CARTESIAN_POINT ( 'NONE',  ( 0.1472243186433546100, -0.2550000000000000000, 0.2500000000000000000 ) ) ;
#137 = FILL_AREA_STYLE ('',( #192 ) ) ;
#138 = AXIS2_PLACEMENT_3D ( 'NONE', #5, #67, #208 ) ;
#139 = SURFACE_STYLE_FILL_AREA ( #264 ) ;
#140 = EDGE_CURVE ( 'NONE', #300, #212, #183, .T. ) ;
#141 = APPLICATION_CONTEXT ( 'automotive_design' ) ;
#142 = VERTEX_POINT ( 'NONE', #157 ) ;
#143 = EDGE_CURVE ( 'NONE', #238, #92, #197, .T. ) ;
#144 = LINE ( 'NONE', #333, #70 ) ;
#145 = CARTESIAN_POINT ( 'NONE',  ( -0.2944486372867092200, 2.527242374660742700E-017, -0.2500000000000000000 ) ) ;
#146 = VECTOR ( 'NONE', #279, 39.37007874015748100 ) ;
#147 = VERTEX_POINT ( 'NONE', #282 ) ;
#148 = PRESENTATION_STYLE_ASSIGNMENT (( #289 ) ) ;
#149 = EDGE_LOOP ( 'NONE', ( #24, #223, #248, #178 ) ) ;
#150 = CARTESIAN_POINT ( 'NONE',  ( -0.3838582677165354200, 0.0000000000000000000, 0.2500000000000000000 ) ) ;
#151 = EDGE_LOOP ( 'NONE', ( #313, #91 ) ) ;
#152 = VECTOR ( 'NONE', #177, 39.37007874015748900 ) ;
#153 =( NAMED_UNIT ( * ) PLANE_ANGLE_UNIT ( ) SI_UNIT ( $, .RADIAN. ) );
#154 = ORIENTED_EDGE ( 'NONE', *, *, #78, .F. ) ;
#155 = VECTOR ( 'NONE', #57, 39.37007874015748100 ) ;
#156 = ORIENTED_EDGE ( 'NONE', *, *, #68, .F. ) ;
#157 = CARTESIAN_POINT ( 'NONE',  ( -0.1472243186433546400, 0.2550000000000000600, 0.2500000000000000000 ) ) ;
#158 = VERTEX_POINT ( 'NONE', #308 ) ;
#159 =( NAMED_UNIT ( * ) SI_UNIT ( $, .STERADIAN. ) SOLID_ANGLE_UNIT ( ) );
#160 = ORIENTED_EDGE ( 'NONE', *, *, #195, .F. ) ;
#161 = CARTESIAN_POINT ( 'NONE',  ( -0.1472243186433546400, 0.2550000000000000600, 0.2500000000000000000 ) ) ;
#162 = EDGE_CURVE ( 'NONE', #92, #212, #135, .T. ) ;
#163 = VECTOR ( 'NONE', #56, 39.37007874015748900 ) ;
#164 = FACE_OUTER_BOUND ( 'NONE', #306, .T. ) ;
#165 = CARTESIAN_POINT ( 'NONE',  ( -0.1472243186433546400, -0.2550000000000000000, -0.2500000000000000000 ) ) ;
#166 = DIRECTION ( 'NONE',  ( 0.0000000000000000000, 0.0000000000000000000, 1.000000000000000000 ) ) ;
#167 = ORIENTED_EDGE ( 'NONE', *, *, #65, .T. ) ;
#168 = CYLINDRICAL_SURFACE ( 'NONE', #278, 0.3838582677165354200 ) ;
#169 = VECTOR ( 'NONE', #131, 39.37007874015748100 ) ;
#170 = EDGE_CURVE ( 'NONE', #238, #300, #191, .T. ) ;
#171 = ORIENTED_EDGE ( 'NONE', *, *, #203, .F. ) ;
#172 = MECHANICAL_DESIGN_GEOMETRIC_PRESENTATION_REPRESENTATION (  '', ( #210 ), #73 ) ;
#173 = PRODUCT_DEFINITION_CONTEXT ( 'detailed design', #141, 'design' ) ;
#174 = FACE_OUTER_BOUND ( 'NONE', #235, .T. ) ;
#175 = CARTESIAN_POINT ( 'NONE',  ( 0.1472243186433544700, 0.2550000000000001700, 0.2500000000000000000 ) ) ;
#176 = CARTESIAN_POINT ( 'NONE',  ( -0.2944486372867092200, 2.527242374660742700E-017, 0.2500000000000000000 ) ) ;
#177 = DIRECTION ( 'NONE',  ( -0.4999999999999998900, -0.8660254037844386000, 0.0000000000000000000 ) ) ;
#178 = ORIENTED_EDGE ( 'NONE', *, *, #140, .F. ) ;
#179 = PLANE ( 'NONE',  #15 ) ;
#180 = COLOUR_RGB ( '',0.4941176470588235500, 0.4941176470588235500, 0.4941176470588235500 ) ;
#181 = VECTOR ( 'NONE', #119, 39.37007874015748900 ) ;
#182 =( GEOMETRIC_REPRESENTATION_CONTEXT ( 3 ) GLOBAL_UNCERTAINTY_ASSIGNED_CONTEXT ( ( #99 ) ) GLOBAL_UNIT_ASSIGNED_CONTEXT ( ( #316, #153, #335 ) ) REPRESENTATION_CONTEXT ( 'NONE', 'WORKASPACE' ) );
#183 = LINE ( 'NONE', #265, #155 ) ;
#184 = EDGE_LOOP ( 'NONE', ( #160, #171, #13, #283, #122, #270 ) ) ;
#185 = CARTESIAN_POINT ( 'NONE',  ( 0.3838582677165354200, 4.700907988853029100E-017, -0.2500000000000000000 ) ) ;
#186 = CARTESIAN_POINT ( 'NONE',  ( -0.1472243186433545600, -0.2550000000000000000, 0.2500000000000000000 ) ) ;
#187 = APPLICATION_PROTOCOL_DEFINITION ( 'draft international standard', 'automotive_design', 1998, #215 ) ;
#188 = DIRECTION ( 'NONE',  ( -0.4999999999999998900, -0.8660254037844386000, 0.0000000000000000000 ) ) ;
#189 = LINE ( 'NONE', #263, #181 ) ;
#190 = DIRECTION ( 'NONE',  ( -0.0000000000000000000, -0.0000000000000000000, -1.000000000000000000 ) ) ;
#191 = CIRCLE ( 'NONE', #37, 0.3838582677165354200 ) ;
#192 = FILL_AREA_STYLE_COLOUR ( '', #180 ) ;
#193 = PRODUCT_DEFINITION ( 'UNKNOWN', '', #205, #173 ) ;
#194 = EDGE_CURVE ( 'NONE', #300, #238, #109, .T. ) ;
#195 = EDGE_CURVE ( 'NONE', #309, #10, #144, .T. ) ;
#196 = ORIENTED_EDGE ( 'NONE', *, *, #71, .T. ) ;
#197 = LINE ( 'NONE', #257, #34 ) ;
#198 = DIRECTION ( 'NONE',  ( 1.000000000000000000, 3.479190826162944300E-016, 0.0000000000000000000 ) ) ;
#199 = DIRECTION ( 'NONE',  ( 0.5000000000000001100, -0.8660254037844386000, 0.0000000000000000000 ) ) ;
#200 = VECTOR ( 'NONE', #291, 39.37007874015748100 ) ;
#201 = FACE_BOUND ( 'NONE', #28, .T. ) ;
#202 = CARTESIAN_POINT ( 'NONE',  ( -0.1472243186433546400, 0.2550000000000000600, 0.2500000000000000000 ) ) ;
#203 = EDGE_CURVE ( 'NONE', #286, #309, #260, .T. ) ;
#204 = ORIENTED_EDGE ( 'NONE', *, *, #71, .F. ) ;
#205 = PRODUCT_DEFINITION_FORMATION_WITH_SPECIFIED_SOURCE ( 'ANY', '', #254, .NOT_KNOWN. ) ;
#206 = VECTOR ( 'NONE', #188, 39.37007874015748900 ) ;
#207 = CARTESIAN_POINT ( 'NONE',  ( 0.2944486372867092200, 1.028089255413782600E-017, 0.2500000000000000000 ) ) ;
#208 = DIRECTION ( 'NONE',  ( -1.000000000000000000, 0.0000000000000000000, 0.0000000000000000000 ) ) ;
#209 = EDGE_CURVE ( 'NONE', #341, #286, #61, .T. ) ;
#210 = STYLED_ITEM ( 'NONE', ( #18 ), #38 ) ;
#211 = EDGE_CURVE ( 'NONE', #142, #341, #125, .T. ) ;
#212 = VERTEX_POINT ( 'NONE', #104 ) ;
#213 = DIRECTION ( 'NONE',  ( 0.0000000000000000000, 0.0000000000000000000, 1.000000000000000000 ) ) ;
#214 = CARTESIAN_POINT ( 'NONE',  ( 0.0000000000000000000, 0.0000000000000000000, -0.2500000000000000000 ) ) ;
#215 = APPLICATION_CONTEXT ( 'automotive_design' ) ;
#216 = DIRECTION ( 'NONE',  ( -1.000000000000000000, -3.479190826162944300E-016, 0.0000000000000000000 ) ) ;
#217 =( CONVERSION_BASED_UNIT ( 'INCH', #121 ) LENGTH_UNIT ( ) NAMED_UNIT ( #128 ) );
#218 = ORIENTED_EDGE ( 'NONE', *, *, #195, .T. ) ;
#219 = LINE ( 'NONE', #129, #314 ) ;
#220 = ORIENTED_EDGE ( 'NONE', *, *, #19, .F. ) ;
#221 = ORIENTED_EDGE ( 'NONE', *, *, #68, .T. ) ;
#222 =( NAMED_UNIT ( * ) PLANE_ANGLE_UNIT ( ) SI_UNIT ( $, .RADIAN. ) );
#223 = ORIENTED_EDGE ( 'NONE', *, *, #143, .T. ) ;
#224 = ORIENTED_EDGE ( 'NONE', *, *, #6, .F. ) ;
#225 = LINE ( 'NONE', #237, #163 ) ;
#226 = PLANE ( 'NONE',  #307 ) ;
#227 = CARTESIAN_POINT ( 'NONE',  ( -0.1472243186433545600, -0.2550000000000000000, 0.2500000000000000000 ) ) ;
#228 = CARTESIAN_POINT ( 'NONE',  ( 0.0000000000000000000, 0.0000000000000000000, -0.2500000000000000000 ) ) ;
#229 = ORIENTED_EDGE ( 'NONE', *, *, #162, .F. ) ;
#230 = ORIENTED_EDGE ( 'NONE', *, *, #55, .F. ) ;
#231 = ORIENTED_EDGE ( 'NONE', *, *, #43, .T. ) ;
#232 = AXIS2_PLACEMENT_3D ( 'NONE', #86, #276, #112 ) ;
#233 = DIRECTION ( 'NONE',  ( 0.4999999999999998900, 0.8660254037844386000, 0.0000000000000000000 ) ) ;
#234 = EDGE_CURVE ( 'NONE', #303, #142, #51, .T. ) ;
#235 = EDGE_LOOP ( 'NONE', ( #267, #251, #3, #277 ) ) ;
#236 = VECTOR ( 'NONE', #126, 39.37007874015748100 ) ;
#237 = CARTESIAN_POINT ( 'NONE',  ( 0.2944486372867092200, 1.028089255413782600E-017, -0.2500000000000000000 ) ) ;
#238 = VERTEX_POINT ( 'NONE', #11 ) ;
#239 = LINE ( 'NONE', #338, #200 ) ;
#240 = ORIENTED_EDGE ( 'NONE', *, *, #203, .T. ) ;
#241 = DIRECTION ( 'NONE',  ( 1.000000000000000000, 0.0000000000000000000, 0.0000000000000000000 ) ) ;
#242 = VERTEX_POINT ( 'NONE', #244 ) ;
#243 = SURFACE_STYLE_USAGE ( .BOTH. , #42 ) ;
#244 = CARTESIAN_POINT ( 'NONE',  ( 0.1472243186433546100, -0.2550000000000000000, -0.2500000000000000000 ) ) ;
#245 = PLANE ( 'NONE',  #319 ) ;
#246 = LINE ( 'NONE', #315, #236 ) ;
#247 = DIRECTION ( 'NONE',  ( -0.0000000000000000000, -0.0000000000000000000, -1.000000000000000000 ) ) ;
#248 = ORIENTED_EDGE ( 'NONE', *, *, #162, .T. ) ;
#249 = ORIENTED_EDGE ( 'NONE', *, *, #140, .T. ) ;
#250 = ORIENTED_EDGE ( 'NONE', *, *, #30, .T. ) ;
#251 = ORIENTED_EDGE ( 'NONE', *, *, #83, .F. ) ;
#252 = MANIFOLD_SOLID_BREP ( 'Boss-Extrude1', #36 ) ;
#253 = ORIENTED_EDGE ( 'NONE', *, *, #59, .F. ) ;
#254 = PRODUCT ( '217-3261-STEP', '217-3261-STEP', '', ( #302 ) ) ;
#255 = LENGTH_MEASURE_WITH_UNIT ( LENGTH_MEASURE( 0.02539999999999999900 ), #127 );
#256 = LINE ( 'NONE', #9, #169 ) ;
#257 = CARTESIAN_POINT ( 'NONE',  ( 0.3838582677165354200, 4.700907988853029100E-017, 0.2500000000000000000 ) ) ;
#258 = DIRECTION ( 'NONE',  ( 1.000000000000000000, 0.0000000000000000000, 0.0000000000000000000 ) ) ;
#259 = ORIENTED_EDGE ( 'NONE', *, *, #35, .F. ) ;
#260 = LINE ( 'NONE', #186, #90 ) ;
#261 = LINE ( 'NONE', #94, #146 ) ;
#262 = ORIENTED_EDGE ( 'NONE', *, *, #59, .T. ) ;
#263 = CARTESIAN_POINT ( 'NONE',  ( 0.1472243186433546100, -0.2550000000000000000, -0.2500000000000000000 ) ) ;
#264 = FILL_AREA_STYLE ('',( #272 ) ) ;
#265 = CARTESIAN_POINT ( 'NONE',  ( -0.3838582677165354200, 0.0000000000000000000, 0.2500000000000000000 ) ) ;
#266 = CARTESIAN_POINT ( 'NONE',  ( 0.2944486372867092200, 1.028089255413782600E-017, 0.2500000000000000000 ) ) ;
#267 = ORIENTED_EDGE ( 'NONE', *, *, #43, .F. ) ;
#268 = ORIENTED_EDGE ( 'NONE', *, *, #30, .F. ) ;
#269 = ADVANCED_FACE ( 'NONE', ( #124 ), #82, .T. ) ;
#270 = ORIENTED_EDGE ( 'NONE', *, *, #284, .F. ) ;
#271 =( CONVERSION_BASED_UNIT ( 'INCH', #305 ) LENGTH_UNIT ( ) NAMED_UNIT ( #290 ) );
#272 = FILL_AREA_STYLE_COLOUR ( '', #324 ) ;
#273 = CARTESIAN_POINT ( 'NONE',  ( 0.1472243186433546100, -0.2550000000000000000, 0.2500000000000000000 ) ) ;
#274 = MECHANICAL_DESIGN_GEOMETRIC_PRESENTATION_REPRESENTATION (  '', ( #81 ), #182 ) ;
#275 = SHAPE_DEFINITION_REPRESENTATION ( #14, #38 ) ;
#276 = DIRECTION ( 'NONE',  ( 0.0000000000000000000, 0.0000000000000000000, 1.000000000000000000 ) ) ;
#277 = ORIENTED_EDGE ( 'NONE', *, *, #55, .T. ) ;
#278 = AXIS2_PLACEMENT_3D ( 'NONE', #63, #190, #12 ) ;
#279 = DIRECTION ( 'NONE',  ( -1.000000000000000000, -3.479190826162944300E-016, 0.0000000000000000000 ) ) ;
#280 = DIRECTION ( 'NONE',  ( 0.0000000000000000000, 0.0000000000000000000, 1.000000000000000000 ) ) ;
#281 = ORIENTED_EDGE ( 'NONE', *, *, #19, .T. ) ;
#282 = CARTESIAN_POINT ( 'NONE',  ( 0.2944486372867092200, 1.028089255413782600E-017, -0.2500000000000000000 ) ) ;
#283 = ORIENTED_EDGE ( 'NONE', *, *, #211, .F. ) ;
#284 = EDGE_CURVE ( 'NONE', #10, #303, #22, .T. ) ;
#285 = ADVANCED_FACE ( 'NONE', ( #31 ), #293, .T. ) ;
#286 = VERTEX_POINT ( 'NONE', #101 ) ;
#287 = AXIS2_PLACEMENT_3D ( 'NONE', #327, #166, #343 ) ;
#288 = DIRECTION ( 'NONE',  ( -0.5000000000000001100, 0.8660254037844386000, 0.0000000000000000000 ) ) ;
#289 = SURFACE_STYLE_USAGE ( .BOTH. , #98 ) ;
#290 = DIMENSIONAL_EXPONENTS ( 1.000000000000000000, 0.0000000000000000000, 0.0000000000000000000, 0.0000000000000000000, 0.0000000000000000000, 0.0000000000000000000, 0.0000000000000000000 ) ;
#291 = DIRECTION ( 'NONE',  ( -0.0000000000000000000, -0.0000000000000000000, -1.000000000000000000 ) ) ;
#292 = VECTOR ( 'NONE', #80, 39.37007874015748100 ) ;
#293 = PLANE ( 'NONE',  #87 ) ;
#294 = DIRECTION ( 'NONE',  ( 0.5000000000000001100, -0.8660254037844386000, 0.0000000000000000000 ) ) ;
#295 = ADVANCED_FACE ( 'NONE', ( #20 ), #179, .T. ) ;
#296 = DIRECTION ( 'NONE',  ( -0.5000000000000000000, -0.8660254037844386000, 0.0000000000000000000 ) ) ;
#297 = DIRECTION ( 'NONE',  ( -0.0000000000000000000, -0.0000000000000000000, -1.000000000000000000 ) ) ;
#298 = PLANE ( 'NONE',  #287 ) ;
#299 = ORIENTED_EDGE ( 'NONE', *, *, #234, .T. ) ;
#300 = VERTEX_POINT ( 'NONE', #150 ) ;
#301 =( GEOMETRIC_REPRESENTATION_CONTEXT ( 3 ) GLOBAL_UNCERTAINTY_ASSIGNED_CONTEXT ( ( #53 ) ) GLOBAL_UNIT_ASSIGNED_CONTEXT ( ( #217, #321, #159 ) ) REPRESENTATION_CONTEXT ( 'NONE', 'WORKASPACE' ) );
#302 = PRODUCT_CONTEXT ( 'NONE', #215, 'mechanical' ) ;
#303 = VERTEX_POINT ( 'NONE', #93 ) ;
#304 = ORIENTED_EDGE ( 'NONE', *, *, #211, .T. ) ;
#305 = LENGTH_MEASURE_WITH_UNIT ( LENGTH_MEASURE( 0.02539999999999999900 ), #75 );
#306 = EDGE_LOOP ( 'NONE', ( #156, #229 ) ) ;
#307 = AXIS2_PLACEMENT_3D ( 'NONE', #89, #280, #117 ) ;
#308 = CARTESIAN_POINT ( 'NONE',  ( -0.2944486372867092200, 2.527242374660742700E-017, -0.2500000000000000000 ) ) ;
#309 = VERTEX_POINT ( 'NONE', #350 ) ;
#310 = DIRECTION ( 'NONE',  ( 0.0000000000000000000, 0.0000000000000000000, 1.000000000000000000 ) ) ;
#311 = ORIENTED_EDGE ( 'NONE', *, *, #6, .T. ) ;
#312 = PRODUCT_RELATED_PRODUCT_CATEGORY ( 'part', '', ( #254 ) ) ;
#313 = ORIENTED_EDGE ( 'NONE', *, *, #194, .T. ) ;
#314 = VECTOR ( 'NONE', #337, 39.37007874015748100 ) ;
#315 = CARTESIAN_POINT ( 'NONE',  ( -0.1472243186433545600, -0.2550000000000000000, -0.2500000000000000000 ) ) ;
#316 =( CONVERSION_BASED_UNIT ( 'INCH', #255 ) LENGTH_UNIT ( ) NAMED_UNIT ( #133 ) );
#317 = ADVANCED_FACE ( 'NONE', ( #115 ), #168, .T. ) ;
#318 = ADVANCED_FACE ( 'NONE', ( #47 ), #245, .T. ) ;
#319 = AXIS2_PLACEMENT_3D ( 'NONE', #273, #106, #296 ) ;
#320 = DIRECTION ( 'NONE',  ( 1.000000000000000000, 0.0000000000000000000, 0.0000000000000000000 ) ) ;
#321 =( NAMED_UNIT ( * ) PLANE_ANGLE_UNIT ( ) SI_UNIT ( $, .RADIAN. ) );
#322 = ADVANCED_FACE ( 'NONE', ( #97 ), #77, .T. ) ;
#323 = EDGE_LOOP ( 'NONE', ( #220, #253, #218, #167 ) ) ;
#324 = COLOUR_RGB ( '',0.4941176470588235500, 0.4941176470588235500, 0.4941176470588235500 ) ;
#325 = ORIENTED_EDGE ( 'NONE', *, *, #78, .T. ) ;
#326 = AXIS2_PLACEMENT_3D ( 'NONE', #175, #346, #198 ) ;
#327 = CARTESIAN_POINT ( 'NONE',  ( 0.0000000000000000000, 0.0000000000000000000, -0.2500000000000000000 ) ) ;
#328 = APPLICATION_PROTOCOL_DEFINITION ( 'draft international standard', 'automotive_design', 1998, #141 ) ;
#329 = EDGE_LOOP ( 'NONE', ( #268, #204, #299, #325 ) ) ;
#330 = PRESENTATION_LAYER_ASSIGNMENT (  '', '', ( #210 ) ) ;
#331 = PLANE ( 'NONE',  #96 ) ;
#332 = CARTESIAN_POINT ( 'NONE',  ( -0.1472243186433546400, 0.2550000000000000600, -0.2500000000000000000 ) ) ;
#333 = CARTESIAN_POINT ( 'NONE',  ( 0.1472243186433546100, -0.2550000000000000000, 0.2500000000000000000 ) ) ;
#334 = VERTEX_POINT ( 'NONE', #134 ) ;
#335 =( NAMED_UNIT ( * ) SI_UNIT ( $, .STERADIAN. ) SOLID_ANGLE_UNIT ( ) );
#336 = ADVANCED_FACE ( 'NONE', ( #17, #2 ), #226, .T. ) ;
#337 = DIRECTION ( 'NONE',  ( -0.0000000000000000000, -0.0000000000000000000, -1.000000000000000000 ) ) ;
#338 = CARTESIAN_POINT ( 'NONE',  ( -0.1472243186433546400, 0.2550000000000000600, 0.2500000000000000000 ) ) ;
#339 = ADVANCED_FACE ( 'NONE', ( #164, #201 ), #298, .F. ) ;
#340 = CARTESIAN_POINT ( 'NONE',  ( 0.1472243186433544700, 0.2550000000000001700, 0.2500000000000000000 ) ) ;
#341 = VERTEX_POINT ( 'NONE', #110 ) ;
#342 = UNCERTAINTY_MEASURE_WITH_UNIT (LENGTH_MEASURE( 1.000000000000000100E-005 ), #271, 'distance_accuracy_value', 'NONE');
#343 = DIRECTION ( 'NONE',  ( 1.000000000000000000, 0.0000000000000000000, -0.0000000000000000000 ) ) ;
#344 = ORIENTED_EDGE ( 'NONE', *, *, #83, .T. ) ;
#345 = VECTOR ( 'NONE', #294, 39.37007874015748100 ) ;
#346 = DIRECTION ( 'NONE',  ( 3.479190826162944300E-016, -1.000000000000000000, 0.0000000000000000000 ) ) ;
#347 = DIRECTION ( 'NONE',  ( 0.8660254037844386000, 0.5000000000000001100, -0.0000000000000000000 ) ) ;
#348 = PLANE ( 'NONE',  #50 ) ;
#349 = DIRECTION ( 'NONE',  ( 0.5000000000000000000, 0.8660254037844386000, 0.0000000000000000000 ) ) ;
#350 = CARTESIAN_POINT ( 'NONE',  ( 0.1472243186433546100, -0.2550000000000000000, 0.2500000000000000000 ) ) ;
#351 = EDGE_LOOP ( 'NONE', ( #85, #32, #249, #221 ) ) ;
ENDSEC;
END-ISO-10303-21;
