ISO-10303-21;
HEADER;
FILE_DESCRIPTION (( 'STEP AP214' ),
    '1' );
FILE_NAME ('217-3260-STEP.STEP',
    '2013-12-06T21:08:48',
    ( '' ),
    ( '' ),
    'SwSTEP 2.0',
    'SolidWorks 2013',
    '' );
FILE_SCHEMA (( 'AUTOMOTIVE_DESIGN' ));
ENDSEC;

DATA;
#1 = VERTEX_POINT ( 'NONE', #146 ) ;
#2 = COLOUR_RGB ( '',0.4941176470588235500, 0.4941176470588235500, 0.4941176470588235500 ) ;
#3 = CARTESIAN_POINT ( 'NONE',  ( 0.2222798536380059300, 6.082630298393085800E-017, -0.1250000000000000000 ) ) ;
#4 = FILL_AREA_STYLE ('',( #137 ) ) ;
#5 = DIRECTION ( 'NONE',  ( 0.5000000000000004400, -0.8660254037844383700, 0.0000000000000000000 ) ) ;
#6 = AXIS2_PLACEMENT_3D ( 'NONE', #262, #9, #207 ) ;
#7 = DIRECTION ( 'NONE',  ( 0.0000000000000000000, 0.0000000000000000000, 1.000000000000000000 ) ) ;
#8 = DIRECTION ( 'NONE',  ( -0.0000000000000000000, -0.0000000000000000000, -1.000000000000000000 ) ) ;
#9 = DIRECTION ( 'NONE',  ( 0.0000000000000000000, 0.0000000000000000000, 1.000000000000000000 ) ) ;
#10 = DIRECTION ( 'NONE',  ( -0.5000000000000004400, 0.8660254037844383700, 0.0000000000000000000 ) ) ;
#11 = PRODUCT_DEFINITION_CONTEXT ( 'detailed design', #230, 'design' ) ;
#12 = SURFACE_SIDE_STYLE ('',( #246 ) ) ;
#13 = LINE ( 'NONE', #208, #45 ) ;
#14 = VECTOR ( 'NONE', #171, 39.37007874015748100 ) ;
#15 = ORIENTED_EDGE ( 'NONE', *, *, #255, .T. ) ;
#16 = PRODUCT_RELATED_PRODUCT_CATEGORY ( 'part', '', ( #84 ) ) ;
#17 = VECTOR ( 'NONE', #141, 39.37007874015748100 ) ;
#18 = CARTESIAN_POINT ( 'NONE',  ( 0.3125000000000000000, 3.827021247335478900E-017, 0.1250000000000000000 ) ) ;
#19 = ADVANCED_FACE ( 'NONE', ( #279 ), #60, .T. ) ;
#20 = PRODUCT_DEFINITION_FORMATION_WITH_SPECIFIED_SOURCE ( 'ANY', '', #84, .NOT_KNOWN. ) ;
#21 = CARTESIAN_POINT ( 'NONE',  ( -0.2222798536380059800, -6.829619984160656800E-017, -0.1250000000000000000 ) ) ;
#22 = CIRCLE ( 'NONE', #201, 0.3125000000000000000 ) ;
#23 = EDGE_CURVE ( 'NONE', #1, #265, #167, .T. ) ;
#24 = FACE_OUTER_BOUND ( 'NONE', #204, .T. ) ;
#25 = DIRECTION ( 'NONE',  ( -0.5000000000000004400, 0.8660254037844383700, 0.0000000000000000000 ) ) ;
#26 = EDGE_CURVE ( 'NONE', #1, #282, #214, .T. ) ;
#27 = LINE ( 'NONE', #140, #321 ) ;
#28 = SURFACE_STYLE_USAGE ( .BOTH. , #203 ) ;
#29 = CARTESIAN_POINT ( 'NONE',  ( -0.3125000000000000000, 0.0000000000000000000, -0.1250000000000000000 ) ) ;
#30 = PLANE ( 'NONE',  #108 ) ;
#31 = PRODUCT_CONTEXT ( 'NONE', #147, 'mechanical' ) ;
#32 =( GEOMETRIC_REPRESENTATION_CONTEXT ( 3 ) GLOBAL_UNCERTAINTY_ASSIGNED_CONTEXT ( ( #76 ) ) GLOBAL_UNIT_ASSIGNED_CONTEXT ( ( #313, #142, #334 ) ) REPRESENTATION_CONTEXT ( 'NONE', 'WORKASPACE' ) );
#33 = LINE ( 'NONE', #156, #17 ) ;
#34 = DIRECTION ( 'NONE',  ( -0.4999999999999996100, -0.8660254037844388200, 0.0000000000000000000 ) ) ;
#35 = VECTOR ( 'NONE', #54, 39.37007874015748100 ) ;
#36 = DIRECTION ( 'NONE',  ( 0.4999999999999997200, 0.8660254037844388200, 0.0000000000000000000 ) ) ;
#37 =( LENGTH_UNIT ( ) NAMED_UNIT ( * ) SI_UNIT ( $, .METRE. ) );
#38 = VECTOR ( 'NONE', #8, 39.37007874015748100 ) ;
#39 = CARTESIAN_POINT ( 'NONE',  ( 0.1111399268190028500, 0.1925000000000000900, 0.1250000000000000000 ) ) ;
#40 = MECHANICAL_DESIGN_GEOMETRIC_PRESENTATION_REPRESENTATION (  '', ( #44 ), #32 ) ;
#41 = CARTESIAN_POINT ( 'NONE',  ( 0.1111399268190028500, 0.1925000000000000900, -0.1250000000000000000 ) ) ;
#42 = PRESENTATION_LAYER_ASSIGNMENT (  '', '', ( #44 ) ) ;
#43 = DIRECTION ( 'NONE',  ( -0.0000000000000000000, -0.0000000000000000000, -1.000000000000000000 ) ) ;
#44 = STYLED_ITEM ( 'NONE', ( #218 ), #283 ) ;
#45 = VECTOR ( 'NONE', #34, 39.37007874015748900 ) ;
#46 = PRODUCT_DEFINITION_SHAPE ( 'NONE', 'NONE',  #52 ) ;
#47 = CARTESIAN_POINT ( 'NONE',  ( -0.2222798536380059300, -6.829619984160658000E-017, 0.1250000000000000000 ) ) ;
#48 = DIRECTION ( 'NONE',  ( -1.000000000000000000, -1.536266079084936400E-016, 0.0000000000000000000 ) ) ;
#49 =( CONVERSION_BASED_UNIT ( 'INCH', #116 ) LENGTH_UNIT ( ) NAMED_UNIT ( #275 ) );
#50 = ORIENTED_EDGE ( 'NONE', *, *, #297, .F. ) ;
#51 = CLOSED_SHELL ( 'NONE', ( #161, #125, #155, #71, #345, #99, #348, #129, #19, #342 ) ) ;
#52 = PRODUCT_DEFINITION ( 'UNKNOWN', '', #20, #11 ) ;
#53 = FACE_OUTER_BOUND ( 'NONE', #232, .T. ) ;
#54 = DIRECTION ( 'NONE',  ( 1.000000000000000000, 1.536266079084936400E-016, 0.0000000000000000000 ) ) ;
#55 = APPLICATION_PROTOCOL_DEFINITION ( 'draft international standard', 'automotive_design', 1998, #230 ) ;
#56 = DIRECTION ( 'NONE',  ( -1.536266079084936400E-016, 1.000000000000000000, 0.0000000000000000000 ) ) ;
#57 = DIRECTION ( 'NONE',  ( 0.5000000000000000000, -0.8660254037844386000, 0.0000000000000000000 ) ) ;
#58 = AXIS2_PLACEMENT_3D ( 'NONE', #332, #173, #5 ) ;
#59 = FACE_OUTER_BOUND ( 'NONE', #324, .T. ) ;
#60 = PLANE ( 'NONE',  #235 ) ;
#61 = LINE ( 'NONE', #3, #224 ) ;
#62 =( GEOMETRIC_REPRESENTATION_CONTEXT ( 3 ) GLOBAL_UNCERTAINTY_ASSIGNED_CONTEXT ( ( #179 ) ) GLOBAL_UNIT_ASSIGNED_CONTEXT ( ( #295, #114, #88 ) ) REPRESENTATION_CONTEXT ( 'NONE', 'WORKASPACE' ) );
#63 = AXIS2_PLACEMENT_3D ( 'NONE', #258, #56, #48 ) ;
#64 = CARTESIAN_POINT ( 'NONE',  ( 0.0000000000000000000, 0.0000000000000000000, 0.1250000000000000000 ) ) ;
#65 = ORIENTED_EDGE ( 'NONE', *, *, #351, .T. ) ;
#66 = LINE ( 'NONE', #344, #177 ) ;
#67 = DIRECTION ( 'NONE',  ( -0.0000000000000000000, -0.0000000000000000000, -1.000000000000000000 ) ) ;
#68 = DIRECTION ( 'NONE',  ( -1.000000000000000000, 0.0000000000000000000, 0.0000000000000000000 ) ) ;
#69 = LINE ( 'NONE', #107, #138 ) ;
#70 = AXIS2_PLACEMENT_3D ( 'NONE', #223, #77, #287 ) ;
#71 = ADVANCED_FACE ( 'NONE', ( #134 ), #93, .T. ) ;
#72 = DIRECTION ( 'NONE',  ( -1.000000000000000000, 0.0000000000000000000, 0.0000000000000000000 ) ) ;
#73 = FACE_BOUND ( 'NONE', #185, .T. ) ;
#74 = DIRECTION ( 'NONE',  ( 0.0000000000000000000, 0.0000000000000000000, 1.000000000000000000 ) ) ;
#75 = LINE ( 'NONE', #335, #35 ) ;
#76 = UNCERTAINTY_MEASURE_WITH_UNIT (LENGTH_MEASURE( 1.000000000000000100E-005 ), #313, 'distance_accuracy_value', 'NONE');
#77 = DIRECTION ( 'NONE',  ( 0.8660254037844387100, 0.5000000000000001100, -0.0000000000000000000 ) ) ;
#78 = EDGE_CURVE ( 'NONE', #288, #341, #153, .T. ) ;
#79 =( NAMED_UNIT ( * ) SI_UNIT ( $, .STERADIAN. ) SOLID_ANGLE_UNIT ( ) );
#80 = DIRECTION ( 'NONE',  ( 1.000000000000000000, 1.536266079084936400E-016, 0.0000000000000000000 ) ) ;
#81 = AXIS2_PLACEMENT_3D ( 'NONE', #254, #74, #284 ) ;
#82 = FACE_OUTER_BOUND ( 'NONE', #119, .T. ) ;
#83 =( LENGTH_UNIT ( ) NAMED_UNIT ( * ) SI_UNIT ( $, .METRE. ) );
#84 = PRODUCT ( '217-3260-STEP', '217-3260-STEP', '', ( #31 ) ) ;
#85 = VECTOR ( 'NONE', #10, 39.37007874015748100 ) ;
#86 = CARTESIAN_POINT ( 'NONE',  ( 0.1111399268190028500, 0.1925000000000000900, 0.1250000000000000000 ) ) ;
#87 = FACE_OUTER_BOUND ( 'NONE', #170, .T. ) ;
#88 =( NAMED_UNIT ( * ) SI_UNIT ( $, .STERADIAN. ) SOLID_ANGLE_UNIT ( ) );
#89 = AXIS2_PLACEMENT_3D ( 'NONE', #175, #7, #206 ) ;
#90 = AXIS2_PLACEMENT_3D ( 'NONE', #98, #303, #126 ) ;
#91 = ORIENTED_EDGE ( 'NONE', *, *, #329, .T. ) ;
#92 = DIRECTION ( 'NONE',  ( 1.000000000000000000, 0.0000000000000000000, -0.0000000000000000000 ) ) ;
#93 = CYLINDRICAL_SURFACE ( 'NONE', #228, 0.3125000000000000000 ) ;
#94 = CIRCLE ( 'NONE', #81, 0.3125000000000000000 ) ;
#95 =( GEOMETRIC_REPRESENTATION_CONTEXT ( 3 ) GLOBAL_UNCERTAINTY_ASSIGNED_CONTEXT ( ( #238 ) ) GLOBAL_UNIT_ASSIGNED_CONTEXT ( ( #49, #259, #79 ) ) REPRESENTATION_CONTEXT ( 'NONE', 'WORKASPACE' ) );
#96 = DIRECTION ( 'NONE',  ( -0.8660254037844388200, 0.4999999999999996100, 0.0000000000000000000 ) ) ;
#97 = CARTESIAN_POINT ( 'NONE',  ( 0.1111399268190029600, -0.1925000000000000900, 0.1250000000000000000 ) ) ;
#98 = CARTESIAN_POINT ( 'NONE',  ( 0.0000000000000000000, 0.0000000000000000000, 0.1250000000000000000 ) ) ;
#99 = ADVANCED_FACE ( 'NONE', ( #103 ), #154, .T. ) ;
#100 = MECHANICAL_DESIGN_GEOMETRIC_PRESENTATION_REPRESENTATION (  '', ( #104 ), #95 ) ;
#101 = CARTESIAN_POINT ( 'NONE',  ( -0.2222798536380059800, -6.829619984160656800E-017, 0.1250000000000000000 ) ) ;
#102 = AXIS2_PLACEMENT_3D ( 'NONE', #197, #43, #72 ) ;
#103 = FACE_OUTER_BOUND ( 'NONE', #247, .T. ) ;
#104 = STYLED_ITEM ( 'NONE', ( #243 ), #257 ) ;
#105 = VECTOR ( 'NONE', #176, 39.37007874015748900 ) ;
#106 = CARTESIAN_POINT ( 'NONE',  ( 0.1111399268190029600, -0.1925000000000000900, -0.1250000000000000000 ) ) ;
#107 = CARTESIAN_POINT ( 'NONE',  ( -0.3125000000000000000, 0.0000000000000000000, 0.1250000000000000000 ) ) ;
#108 = AXIS2_PLACEMENT_3D ( 'NONE', #327, #163, #350 ) ;
#109 = EDGE_CURVE ( 'NONE', #265, #290, #66, .T. ) ;
#110 = CARTESIAN_POINT ( 'NONE',  ( 0.1111399268190028500, 0.1925000000000000900, -0.1250000000000000000 ) ) ;
#111 = CARTESIAN_POINT ( 'NONE',  ( -0.1111399268190029600, -0.1925000000000001400, 0.1250000000000000000 ) ) ;
#112 = ORIENTED_EDGE ( 'NONE', *, *, #305, .F. ) ;
#113 = ORIENTED_EDGE ( 'NONE', *, *, #330, .T. ) ;
#114 =( NAMED_UNIT ( * ) PLANE_ANGLE_UNIT ( ) SI_UNIT ( $, .RADIAN. ) );
#115 = ORIENTED_EDGE ( 'NONE', *, *, #340, .F. ) ;
#116 = LENGTH_MEASURE_WITH_UNIT ( LENGTH_MEASURE( 0.02539999999999999900 ), #225 );
#117 = DIRECTION ( 'NONE',  ( 0.8660254037844388200, -0.4999999999999997200, 0.0000000000000000000 ) ) ;
#118 = APPLICATION_PROTOCOL_DEFINITION ( 'draft international standard', 'automotive_design', 1998, #147 ) ;
#119 = EDGE_LOOP ( 'NONE', ( #337, #182, #231, #200 ) ) ;
#120 = DIRECTION ( 'NONE',  ( 0.0000000000000000000, 0.0000000000000000000, 1.000000000000000000 ) ) ;
#121 = FACE_BOUND ( 'NONE', #199, .T. ) ;
#122 = ORIENTED_EDGE ( 'NONE', *, *, #300, .F. ) ;
#123 = VECTOR ( 'NONE', #67, 39.37007874015748100 ) ;
#124 = LINE ( 'NONE', #110, #145 ) ;
#125 = ADVANCED_FACE ( 'NONE', ( #59, #73 ), #236, .T. ) ;
#126 = DIRECTION ( 'NONE',  ( 1.000000000000000000, 0.0000000000000000000, 0.0000000000000000000 ) ) ;
#127 = PRESENTATION_LAYER_ASSIGNMENT (  '', '', ( #104 ) ) ;
#128 = ORIENTED_EDGE ( 'NONE', *, *, #263, .F. ) ;
#129 = ADVANCED_FACE ( 'NONE', ( #82 ), #298, .T. ) ;
#130 = ORIENTED_EDGE ( 'NONE', *, *, #148, .T. ) ;
#131 = CARTESIAN_POINT ( 'NONE',  ( 0.3125000000000000000, 3.827021247335478900E-017, 0.1250000000000000000 ) ) ;
#132 = EDGE_CURVE ( 'NONE', #165, #159, #33, .T. ) ;
#133 = LENGTH_MEASURE_WITH_UNIT ( LENGTH_MEASURE( 0.02539999999999999900 ), #37 );
#134 = FACE_OUTER_BOUND ( 'NONE', #299, .T. ) ;
#135 = PLANE ( 'NONE',  #63 ) ;
#136 = LINE ( 'NONE', #106, #14 ) ;
#137 = FILL_AREA_STYLE_COLOUR ( '', #280 ) ;
#138 = VECTOR ( 'NONE', #331, 39.37007874015748100 ) ;
#139 = ORIENTED_EDGE ( 'NONE', *, *, #109, .F. ) ;
#140 = CARTESIAN_POINT ( 'NONE',  ( -0.2222798536380059800, -6.829619984160656800E-017, -0.1250000000000000000 ) ) ;
#141 = DIRECTION ( 'NONE',  ( -0.0000000000000000000, -0.0000000000000000000, -1.000000000000000000 ) ) ;
#142 =( NAMED_UNIT ( * ) PLANE_ANGLE_UNIT ( ) SI_UNIT ( $, .RADIAN. ) );
#143 = CARTESIAN_POINT ( 'NONE',  ( -0.1111399268190030300, 0.1925000000000000600, 0.1250000000000000000 ) ) ;
#144 = VECTOR ( 'NONE', #233, 39.37007874015748100 ) ;
#145 = VECTOR ( 'NONE', #311, 39.37007874015748100 ) ;
#146 = CARTESIAN_POINT ( 'NONE',  ( 0.1111399268190028500, 0.1925000000000000900, 0.1250000000000000000 ) ) ;
#147 = APPLICATION_CONTEXT ( 'automotive_design' ) ;
#148 = EDGE_CURVE ( 'NONE', #189, #316, #22, .T. ) ;
#149 = DIRECTION ( 'NONE',  ( 1.536266079084936900E-016, -1.000000000000000000, 0.0000000000000000000 ) ) ;
#150 = VERTEX_POINT ( 'NONE', #291 ) ;
#151 = EDGE_LOOP ( 'NONE', ( #219, #139, #174, #169 ) ) ;
#152 = VERTEX_POINT ( 'NONE', #312 ) ;
#153 = LINE ( 'NONE', #239, #123 ) ;
#154 = PLANE ( 'NONE',  #226 ) ;
#155 = ADVANCED_FACE ( 'NONE', ( #87, #121 ), #30, .F. ) ;
#156 = CARTESIAN_POINT ( 'NONE',  ( -0.2222798536380059800, -6.829619984160656800E-017, 0.1250000000000000000 ) ) ;
#157 = LINE ( 'NONE', #143, #105 ) ;
#158 = VERTEX_POINT ( 'NONE', #131 ) ;
#159 = VERTEX_POINT ( 'NONE', #21 ) ;
#160 = DIRECTION ( 'NONE',  ( -0.0000000000000000000, -0.0000000000000000000, -1.000000000000000000 ) ) ;
#161 = ADVANCED_FACE ( 'NONE', ( #212 ), #195, .T. ) ;
#162 = LENGTH_MEASURE_WITH_UNIT ( LENGTH_MEASURE( 0.02539999999999999900 ), #83 );
#163 = DIRECTION ( 'NONE',  ( 0.0000000000000000000, 0.0000000000000000000, 1.000000000000000000 ) ) ;
#164 = ORIENTED_EDGE ( 'NONE', *, *, #317, .F. ) ;
#165 = VERTEX_POINT ( 'NONE', #47 ) ;
#166 = ORIENTED_EDGE ( 'NONE', *, *, #351, .F. ) ;
#167 = LINE ( 'NONE', #343, #222 ) ;
#168 = VECTOR ( 'NONE', #80, 39.37007874015748100 ) ;
#169 = ORIENTED_EDGE ( 'NONE', *, *, #132, .T. ) ;
#170 = EDGE_LOOP ( 'NONE', ( #205, #276 ) ) ;
#171 = DIRECTION ( 'NONE',  ( 0.4999999999999996100, 0.8660254037844388200, 0.0000000000000000000 ) ) ;
#172 = CARTESIAN_POINT ( 'NONE',  ( -0.1111399268190029600, -0.1925000000000001400, -0.1250000000000000000 ) ) ;
#173 = DIRECTION ( 'NONE',  ( -0.8660254037844383700, -0.5000000000000004400, 0.0000000000000000000 ) ) ;
#174 = ORIENTED_EDGE ( 'NONE', *, *, #323, .T. ) ;
#175 = CARTESIAN_POINT ( 'NONE',  ( 0.0000000000000000000, 0.0000000000000000000, 0.1250000000000000000 ) ) ;
#176 = DIRECTION ( 'NONE',  ( -0.4999999999999996100, -0.8660254037844388200, 0.0000000000000000000 ) ) ;
#177 = VECTOR ( 'NONE', #213, 39.37007874015748100 ) ;
#178 = LINE ( 'NONE', #274, #168 ) ;
#179 = UNCERTAINTY_MEASURE_WITH_UNIT (LENGTH_MEASURE( 1.000000000000000100E-005 ), #295, 'distance_accuracy_value', 'NONE');
#180 = ORIENTED_EDGE ( 'NONE', *, *, #132, .F. ) ;
#181 = FACE_OUTER_BOUND ( 'NONE', #191, .T. ) ;
#182 = ORIENTED_EDGE ( 'NONE', *, *, #26, .F. ) ;
#183 = AXIS2_PLACEMENT_3D ( 'NONE', #39, #149, #272 ) ;
#184 = FILL_AREA_STYLE ('',( #338 ) ) ;
#185 = EDGE_LOOP ( 'NONE', ( #112, #164, #194, #220, #241, #209 ) ) ;
#186 = VERTEX_POINT ( 'NONE', #256 ) ;
#187 = ORIENTED_EDGE ( 'NONE', *, *, #78, .T. ) ;
#188 = LINE ( 'NONE', #292, #85 ) ;
#189 = VERTEX_POINT ( 'NONE', #248 ) ;
#190 = SURFACE_STYLE_FILL_AREA ( #4 ) ;
#191 = EDGE_LOOP ( 'NONE', ( #336, #128, #266, #187 ) ) ;
#192 = DIRECTION ( 'NONE',  ( -1.000000000000000000, -1.536266079084936900E-016, 0.0000000000000000000 ) ) ;
#193 = CARTESIAN_POINT ( 'NONE',  ( -0.1111399268190030300, 0.1925000000000000600, -0.1250000000000000000 ) ) ;
#194 = ORIENTED_EDGE ( 'NONE', *, *, #320, .F. ) ;
#195 = CYLINDRICAL_SURFACE ( 'NONE', #102, 0.3125000000000000000 ) ;
#196 = ORIENTED_EDGE ( 'NONE', *, *, #277, .T. ) ;
#197 = CARTESIAN_POINT ( 'NONE',  ( 0.0000000000000000000, 0.0000000000000000000, 0.1250000000000000000 ) ) ;
#198 = SHAPE_DEFINITION_REPRESENTATION ( #46, #283 ) ;
#199 = EDGE_LOOP ( 'NONE', ( #281, #278, #270, #267, #293, #65 ) ) ;
#200 = ORIENTED_EDGE ( 'NONE', *, *, #109, .T. ) ;
#201 = AXIS2_PLACEMENT_3D ( 'NONE', #229, #120, #322 ) ;
#202 = PLANE ( 'NONE',  #70 ) ;
#203 = SURFACE_SIDE_STYLE ('',( #190 ) ) ;
#204 = EDGE_LOOP ( 'NONE', ( #166, #180, #253, #250 ) ) ;
#205 = ORIENTED_EDGE ( 'NONE', *, *, #330, .F. ) ;
#206 = DIRECTION ( 'NONE',  ( 1.000000000000000000, 0.0000000000000000000, 0.0000000000000000000 ) ) ;
#207 = DIRECTION ( 'NONE',  ( 1.000000000000000000, 0.0000000000000000000, 0.0000000000000000000 ) ) ;
#208 = CARTESIAN_POINT ( 'NONE',  ( -0.1111399268190030300, 0.1925000000000000600, -0.1250000000000000000 ) ) ;
#209 = ORIENTED_EDGE ( 'NONE', *, *, #329, .F. ) ;
#210 = ORIENTED_EDGE ( 'NONE', *, *, #285, .T. ) ;
#211 = SURFACE_STYLE_USAGE ( .BOTH. , #12 ) ;
#212 = FACE_OUTER_BOUND ( 'NONE', #307, .T. ) ;
#213 = DIRECTION ( 'NONE',  ( -0.0000000000000000000, -0.0000000000000000000, -1.000000000000000000 ) ) ;
#214 = LINE ( 'NONE', #86, #144 ) ;
#215 = DIRECTION ( 'NONE',  ( -0.0000000000000000000, -0.0000000000000000000, -1.000000000000000000 ) ) ;
#216 = CARTESIAN_POINT ( 'NONE',  ( 0.2222798536380059300, 6.082630298393085800E-017, 0.1250000000000000000 ) ) ;
#217 = VECTOR ( 'NONE', #347, 39.37007874015748100 ) ;
#218 = PRESENTATION_STYLE_ASSIGNMENT (( #211 ) ) ;
#219 = ORIENTED_EDGE ( 'NONE', *, *, #349, .F. ) ;
#220 = ORIENTED_EDGE ( 'NONE', *, *, #323, .F. ) ;
#221 = AXIS2_PLACEMENT_3D ( 'NONE', #64, #268, #92 ) ;
#222 = VECTOR ( 'NONE', #192, 39.37007874015748100 ) ;
#223 = CARTESIAN_POINT ( 'NONE',  ( -0.2222798536380059800, -6.829619984160656800E-017, 0.1250000000000000000 ) ) ;
#224 = VECTOR ( 'NONE', #25, 39.37007874015748100 ) ;
#225 =( LENGTH_UNIT ( ) NAMED_UNIT ( * ) SI_UNIT ( $, .METRE. ) );
#226 = AXIS2_PLACEMENT_3D ( 'NONE', #97, #96, #302 ) ;
#227 = VECTOR ( 'NONE', #315, 39.37007874015748900 ) ;
#228 = AXIS2_PLACEMENT_3D ( 'NONE', #242, #215, #68 ) ;
#229 = CARTESIAN_POINT ( 'NONE',  ( 0.0000000000000000000, 0.0000000000000000000, -0.1250000000000000000 ) ) ;
#230 = APPLICATION_CONTEXT ( 'automotive_design' ) ;
#231 = ORIENTED_EDGE ( 'NONE', *, *, #23, .T. ) ;
#232 = EDGE_LOOP ( 'NONE', ( #115, #296, #91, #244 ) ) ;
#233 = DIRECTION ( 'NONE',  ( -0.0000000000000000000, -0.0000000000000000000, -1.000000000000000000 ) ) ;
#234 = VECTOR ( 'NONE', #245, 39.37007874015748100 ) ;
#235 = AXIS2_PLACEMENT_3D ( 'NONE', #319, #117, #36 ) ;
#236 = PLANE ( 'NONE',  #221 ) ;
#237 = ORIENTED_EDGE ( 'NONE', *, *, #305, .T. ) ;
#238 = UNCERTAINTY_MEASURE_WITH_UNIT (LENGTH_MEASURE( 1.000000000000000100E-005 ), #49, 'distance_accuracy_value', 'NONE');
#239 = CARTESIAN_POINT ( 'NONE',  ( 0.1111399268190029600, -0.1925000000000000900, 0.1250000000000000000 ) ) ;
#240 = LINE ( 'NONE', #101, #227 ) ;
#241 = ORIENTED_EDGE ( 'NONE', *, *, #23, .F. ) ;
#242 = CARTESIAN_POINT ( 'NONE',  ( 0.0000000000000000000, 0.0000000000000000000, 0.1250000000000000000 ) ) ;
#243 = PRESENTATION_STYLE_ASSIGNMENT (( #28 ) ) ;
#244 = ORIENTED_EDGE ( 'NONE', *, *, #26, .T. ) ;
#245 = DIRECTION ( 'NONE',  ( -0.0000000000000000000, -0.0000000000000000000, -1.000000000000000000 ) ) ;
#246 = SURFACE_STYLE_FILL_AREA ( #184 ) ;
#247 = EDGE_LOOP ( 'NONE', ( #328, #314, #237, #210 ) ) ;
#248 = CARTESIAN_POINT ( 'NONE',  ( 0.3125000000000000000, 3.827021247335478900E-017, -0.1250000000000000000 ) ) ;
#249 = ORIENTED_EDGE ( 'NONE', *, *, #255, .F. ) ;
#250 = ORIENTED_EDGE ( 'NONE', *, *, #263, .T. ) ;
#251 = VERTEX_POINT ( 'NONE', #286 ) ;
#252 = VECTOR ( 'NONE', #160, 39.37007874015748100 ) ;
#253 = ORIENTED_EDGE ( 'NONE', *, *, #320, .T. ) ;
#254 = CARTESIAN_POINT ( 'NONE',  ( 0.0000000000000000000, 0.0000000000000000000, -0.1250000000000000000 ) ) ;
#255 = EDGE_CURVE ( 'NONE', #186, #316, #69, .T. ) ;
#256 = CARTESIAN_POINT ( 'NONE',  ( -0.3125000000000000000, 0.0000000000000000000, 0.1250000000000000000 ) ) ;
#257 = MANIFOLD_SOLID_BREP ( 'Boss-Extrude1', #51 ) ;
#258 = CARTESIAN_POINT ( 'NONE',  ( -0.1111399268190029600, -0.1925000000000001400, 0.1250000000000000000 ) ) ;
#259 =( NAMED_UNIT ( * ) PLANE_ANGLE_UNIT ( ) SI_UNIT ( $, .RADIAN. ) );
#260 = LINE ( 'NONE', #111, #38 ) ;
#261 = ORIENTED_EDGE ( 'NONE', *, *, #297, .T. ) ;
#262 = CARTESIAN_POINT ( 'NONE',  ( 0.0000000000000000000, 0.0000000000000000000, 0.0000000000000000000 ) ) ;
#263 = EDGE_CURVE ( 'NONE', #251, #294, #260, .T. ) ;
#264 = LINE ( 'NONE', #216, #252 ) ;
#265 = VERTEX_POINT ( 'NONE', #310 ) ;
#266 = ORIENTED_EDGE ( 'NONE', *, *, #317, .T. ) ;
#267 = ORIENTED_EDGE ( 'NONE', *, *, #346, .T. ) ;
#268 = DIRECTION ( 'NONE',  ( 0.0000000000000000000, 0.0000000000000000000, 1.000000000000000000 ) ) ;
#269 = ORIENTED_EDGE ( 'NONE', *, *, #277, .F. ) ;
#270 = ORIENTED_EDGE ( 'NONE', *, *, #340, .T. ) ;
#271 = DIMENSIONAL_EXPONENTS ( 1.000000000000000000, 0.0000000000000000000, 0.0000000000000000000, 0.0000000000000000000, 0.0000000000000000000, 0.0000000000000000000, 0.0000000000000000000 ) ;
#272 = DIRECTION ( 'NONE',  ( 1.000000000000000000, 1.536266079084936900E-016, 0.0000000000000000000 ) ) ;
#273 = CARTESIAN_POINT ( 'NONE',  ( 0.1111399268190029600, -0.1925000000000000900, 0.1250000000000000000 ) ) ;
#274 = CARTESIAN_POINT ( 'NONE',  ( -0.1111399268190029600, -0.1925000000000001400, 0.1250000000000000000 ) ) ;
#275 = DIMENSIONAL_EXPONENTS ( 1.000000000000000000, 0.0000000000000000000, 0.0000000000000000000, 0.0000000000000000000, 0.0000000000000000000, 0.0000000000000000000, 0.0000000000000000000 ) ;
#276 = ORIENTED_EDGE ( 'NONE', *, *, #148, .F. ) ;
#277 = EDGE_CURVE ( 'NONE', #158, #186, #325, .T. ) ;
#278 = ORIENTED_EDGE ( 'NONE', *, *, #339, .T. ) ;
#279 = FACE_OUTER_BOUND ( 'NONE', #151, .T. ) ;
#280 = COLOUR_RGB ( '',0.4941176470588235500, 0.4941176470588235500, 0.4941176470588235500 ) ;
#281 = ORIENTED_EDGE ( 'NONE', *, *, #333, .T. ) ;
#282 = VERTEX_POINT ( 'NONE', #41 ) ;
#283 = ADVANCED_BREP_SHAPE_REPRESENTATION ( '217-3260-STEP', ( #257, #6 ), #62 ) ;
#284 = DIRECTION ( 'NONE',  ( 1.000000000000000000, 0.0000000000000000000, 0.0000000000000000000 ) ) ;
#285 = EDGE_CURVE ( 'NONE', #150, #152, #264, .T. ) ;
#286 = CARTESIAN_POINT ( 'NONE',  ( -0.1111399268190029600, -0.1925000000000001400, 0.1250000000000000000 ) ) ;
#287 = DIRECTION ( 'NONE',  ( -0.5000000000000000000, 0.8660254037844386000, 0.0000000000000000000 ) ) ;
#288 = VERTEX_POINT ( 'NONE', #273 ) ;
#289 = PLANE ( 'NONE',  #58 ) ;
#290 = VERTEX_POINT ( 'NONE', #193 ) ;
#291 = CARTESIAN_POINT ( 'NONE',  ( 0.2222798536380059300, 6.082630298393085800E-017, 0.1250000000000000000 ) ) ;
#292 = CARTESIAN_POINT ( 'NONE',  ( 0.2222798536380059300, 6.082630298393085800E-017, 0.1250000000000000000 ) ) ;
#293 = ORIENTED_EDGE ( 'NONE', *, *, #349, .T. ) ;
#294 = VERTEX_POINT ( 'NONE', #172 ) ;
#295 =( CONVERSION_BASED_UNIT ( 'INCH', #162 ) LENGTH_UNIT ( ) NAMED_UNIT ( #271 ) );
#296 = ORIENTED_EDGE ( 'NONE', *, *, #285, .F. ) ;
#297 = EDGE_CURVE ( 'NONE', #158, #189, #308, .T. ) ;
#298 = PLANE ( 'NONE',  #183 ) ;
#299 = EDGE_LOOP ( 'NONE', ( #50, #122, #15, #113 ) ) ;
#300 = EDGE_CURVE ( 'NONE', #186, #158, #318, .T. ) ;
#301 = ORIENTED_EDGE ( 'NONE', *, *, #300, .T. ) ;
#302 = DIRECTION ( 'NONE',  ( -0.4999999999999996100, -0.8660254037844388200, 0.0000000000000000000 ) ) ;
#303 = DIRECTION ( 'NONE',  ( 0.0000000000000000000, 0.0000000000000000000, 1.000000000000000000 ) ) ;
#304 = CARTESIAN_POINT ( 'NONE',  ( 0.1111399268190029600, -0.1925000000000000900, 0.1250000000000000000 ) ) ;
#305 = EDGE_CURVE ( 'NONE', #288, #150, #306, .T. ) ;
#306 = LINE ( 'NONE', #304, #217 ) ;
#307 = EDGE_LOOP ( 'NONE', ( #269, #261, #130, #249 ) ) ;
#308 = LINE ( 'NONE', #18, #234 ) ;
#309 = CARTESIAN_POINT ( 'NONE',  ( 0.1111399268190029600, -0.1925000000000000900, -0.1250000000000000000 ) ) ;
#310 = CARTESIAN_POINT ( 'NONE',  ( -0.1111399268190030300, 0.1925000000000000600, 0.1250000000000000000 ) ) ;
#311 = DIRECTION ( 'NONE',  ( -1.000000000000000000, -1.536266079084936900E-016, 0.0000000000000000000 ) ) ;
#312 = CARTESIAN_POINT ( 'NONE',  ( 0.2222798536380059300, 6.082630298393085800E-017, -0.1250000000000000000 ) ) ;
#313 =( CONVERSION_BASED_UNIT ( 'INCH', #133 ) LENGTH_UNIT ( ) NAMED_UNIT ( #326 ) );
#314 = ORIENTED_EDGE ( 'NONE', *, *, #78, .F. ) ;
#315 = DIRECTION ( 'NONE',  ( 0.5000000000000000000, -0.8660254037844386000, 0.0000000000000000000 ) ) ;
#316 = VERTEX_POINT ( 'NONE', #29 ) ;
#317 = EDGE_CURVE ( 'NONE', #251, #288, #178, .T. ) ;
#318 = CIRCLE ( 'NONE', #89, 0.3125000000000000000 ) ;
#319 = CARTESIAN_POINT ( 'NONE',  ( -0.1111399268190030300, 0.1925000000000000600, 0.1250000000000000000 ) ) ;
#320 = EDGE_CURVE ( 'NONE', #165, #251, #240, .T. ) ;
#321 = VECTOR ( 'NONE', #57, 39.37007874015748900 ) ;
#322 = DIRECTION ( 'NONE',  ( 1.000000000000000000, 0.0000000000000000000, 0.0000000000000000000 ) ) ;
#323 = EDGE_CURVE ( 'NONE', #265, #165, #157, .T. ) ;
#324 = EDGE_LOOP ( 'NONE', ( #301, #196 ) ) ;
#325 = CIRCLE ( 'NONE', #90, 0.3125000000000000000 ) ;
#326 = DIMENSIONAL_EXPONENTS ( 1.000000000000000000, 0.0000000000000000000, 0.0000000000000000000, 0.0000000000000000000, 0.0000000000000000000, 0.0000000000000000000, 0.0000000000000000000 ) ;
#327 = CARTESIAN_POINT ( 'NONE',  ( 0.0000000000000000000, 0.0000000000000000000, -0.1250000000000000000 ) ) ;
#328 = ORIENTED_EDGE ( 'NONE', *, *, #339, .F. ) ;
#329 = EDGE_CURVE ( 'NONE', #150, #1, #188, .T. ) ;
#330 = EDGE_CURVE ( 'NONE', #316, #189, #94, .T. ) ;
#331 = DIRECTION ( 'NONE',  ( -0.0000000000000000000, -0.0000000000000000000, -1.000000000000000000 ) ) ;
#332 = CARTESIAN_POINT ( 'NONE',  ( 0.2222798536380059300, 6.082630298393085800E-017, 0.1250000000000000000 ) ) ;
#333 = EDGE_CURVE ( 'NONE', #294, #341, #75, .T. ) ;
#334 =( NAMED_UNIT ( * ) SI_UNIT ( $, .STERADIAN. ) SOLID_ANGLE_UNIT ( ) );
#335 = CARTESIAN_POINT ( 'NONE',  ( -0.1111399268190029600, -0.1925000000000001400, -0.1250000000000000000 ) ) ;
#336 = ORIENTED_EDGE ( 'NONE', *, *, #333, .F. ) ;
#337 = ORIENTED_EDGE ( 'NONE', *, *, #346, .F. ) ;
#338 = FILL_AREA_STYLE_COLOUR ( '', #2 ) ;
#339 = EDGE_CURVE ( 'NONE', #341, #152, #136, .T. ) ;
#340 = EDGE_CURVE ( 'NONE', #152, #282, #61, .T. ) ;
#341 = VERTEX_POINT ( 'NONE', #309 ) ;
#342 = ADVANCED_FACE ( 'NONE', ( #24 ), #202, .T. ) ;
#343 = CARTESIAN_POINT ( 'NONE',  ( 0.1111399268190028500, 0.1925000000000000900, 0.1250000000000000000 ) ) ;
#344 = CARTESIAN_POINT ( 'NONE',  ( -0.1111399268190030300, 0.1925000000000000600, 0.1250000000000000000 ) ) ;
#345 = ADVANCED_FACE ( 'NONE', ( #181 ), #135, .T. ) ;
#346 = EDGE_CURVE ( 'NONE', #282, #290, #124, .T. ) ;
#347 = DIRECTION ( 'NONE',  ( 0.4999999999999996100, 0.8660254037844388200, 0.0000000000000000000 ) ) ;
#348 = ADVANCED_FACE ( 'NONE', ( #53 ), #289, .T. ) ;
#349 = EDGE_CURVE ( 'NONE', #290, #159, #13, .T. ) ;
#350 = DIRECTION ( 'NONE',  ( 1.000000000000000000, 0.0000000000000000000, -0.0000000000000000000 ) ) ;
#351 = EDGE_CURVE ( 'NONE', #159, #294, #27, .T. ) ;
ENDSEC;
END-ISO-10303-21;
