ISO-10303-21;
HEADER;
FILE_DESCRIPTION (( 'STEP AP214' ),
    '1' );
FILE_NAME ('217-3259-STEP.STEP',
    '2013-12-06T21:08:19',
    ( '' ),
    ( '' ),
    'SwSTEP 2.0',
    'SolidWorks 2013',
    '' );
FILE_SCHEMA (( 'AUTOMOTIVE_DESIGN' ));
ENDSEC;

DATA;
#1 = LINE ( 'NONE', #101, #60 ) ;
#2 = ORIENTED_EDGE ( 'NONE', *, *, #119, .F. ) ;
#3 = CARTESIAN_POINT ( 'NONE',  ( 0.2944486372867092200, 1.028089255413782600E-017, -0.1250000000000000000 ) ) ;
#4 = ADVANCED_FACE ( 'NONE', ( #332 ), #114, .T. ) ;
#5 = PRODUCT_DEFINITION_FORMATION_WITH_SPECIFIED_SOURCE ( 'ANY', '', #99, .NOT_KNOWN. ) ;
#6 = ORIENTED_EDGE ( 'NONE', *, *, #301, .F. ) ;
#7 = DIRECTION ( 'NONE',  ( -0.0000000000000000000, -0.0000000000000000000, -1.000000000000000000 ) ) ;
#8 = DIRECTION ( 'NONE',  ( -0.0000000000000000000, -0.0000000000000000000, -1.000000000000000000 ) ) ;
#9 = APPLICATION_CONTEXT ( 'automotive_design' ) ;
#10 = EDGE_LOOP ( 'NONE', ( #261, #257, #110, #85 ) ) ;
#11 = CARTESIAN_POINT ( 'NONE',  ( 0.0000000000000000000, 0.0000000000000000000, 0.1250000000000000000 ) ) ;
#12 = CARTESIAN_POINT ( 'NONE',  ( 0.0000000000000000000, 0.0000000000000000000, -0.1250000000000000000 ) ) ;
#13 = ORIENTED_EDGE ( 'NONE', *, *, #348, .T. ) ;
#14 = APPLICATION_CONTEXT ( 'automotive_design' ) ;
#15 = LINE ( 'NONE', #160, #283 ) ;
#16 = PLANE ( 'NONE',  #141 ) ;
#17 = ORIENTED_EDGE ( 'NONE', *, *, #279, .T. ) ;
#18 = PRODUCT_DEFINITION ( 'UNKNOWN', '', #5, #24 ) ;
#19 = VECTOR ( 'NONE', #84, 39.37007874015748900 ) ;
#20 = FACE_OUTER_BOUND ( 'NONE', #123, .T. ) ;
#21 = PLANE ( 'NONE',  #233 ) ;
#22 = AXIS2_PLACEMENT_3D ( 'NONE', #176, #155, #335 ) ;
#23 = VECTOR ( 'NONE', #278, 39.37007874015748900 ) ;
#24 = PRODUCT_DEFINITION_CONTEXT ( 'detailed design', #14, 'design' ) ;
#25 = EDGE_LOOP ( 'NONE', ( #347, #2, #75, #69 ) ) ;
#26 = CARTESIAN_POINT ( 'NONE',  ( -0.1472243186433546400, 0.2550000000000000600, -0.1250000000000000000 ) ) ;
#27 = ORIENTED_EDGE ( 'NONE', *, *, #321, .T. ) ;
#28 = VECTOR ( 'NONE', #209, 39.37007874015748100 ) ;
#29 = EDGE_LOOP ( 'NONE', ( #144, #27, #146, #88, #79, #130 ) ) ;
#30 = ADVANCED_FACE ( 'NONE', ( #161 ), #49, .T. ) ;
#31 = FILL_AREA_STYLE ('',( #189 ) ) ;
#32 = VERTEX_POINT ( 'NONE', #312 ) ;
#33 = ADVANCED_BREP_SHAPE_REPRESENTATION ( '217-3259-STEP', ( #234, #22 ), #74 ) ;
#34 = LINE ( 'NONE', #255, #108 ) ;
#35 = ADVANCED_FACE ( 'NONE', ( #153 ), #98, .T. ) ;
#36 = DIRECTION ( 'NONE',  ( -0.0000000000000000000, -0.0000000000000000000, -1.000000000000000000 ) ) ;
#37 = FILL_AREA_STYLE ('',( #193 ) ) ;
#38 = EDGE_CURVE ( 'NONE', #315, #142, #300, .T. ) ;
#39 = LINE ( 'NONE', #296, #280 ) ;
#40 = DIRECTION ( 'NONE',  ( 1.000000000000000000, 0.0000000000000000000, -0.0000000000000000000 ) ) ;
#41 = DIRECTION ( 'NONE',  ( 1.000000000000000000, 0.0000000000000000000, 0.0000000000000000000 ) ) ;
#42 = LINE ( 'NONE', #259, #62 ) ;
#43 = ORIENTED_EDGE ( 'NONE', *, *, #119, .T. ) ;
#44 = CARTESIAN_POINT ( 'NONE',  ( -0.1472243186433546400, 0.2550000000000000600, 0.1250000000000000000 ) ) ;
#45 = CARTESIAN_POINT ( 'NONE',  ( 0.1472243186433546100, -0.2550000000000000000, -0.1250000000000000000 ) ) ;
#46 = UNCERTAINTY_MEASURE_WITH_UNIT (LENGTH_MEASURE( 1.000000000000000100E-005 ), #131, 'distance_accuracy_value', 'NONE');
#47 = VERTEX_POINT ( 'NONE', #92 ) ;
#48 =( GEOMETRIC_REPRESENTATION_CONTEXT ( 3 ) GLOBAL_UNCERTAINTY_ASSIGNED_CONTEXT ( ( #267 ) ) GLOBAL_UNIT_ASSIGNED_CONTEXT ( ( #102, #276, #133 ) ) REPRESENTATION_CONTEXT ( 'NONE', 'WORKASPACE' ) );
#49 = PLANE ( 'NONE',  #243 ) ;
#50 = DIRECTION ( 'NONE',  ( 1.000000000000000000, 0.0000000000000000000, 0.0000000000000000000 ) ) ;
#51 = MECHANICAL_DESIGN_GEOMETRIC_PRESENTATION_REPRESENTATION (  '', ( #57 ), #48 ) ;
#52 = CARTESIAN_POINT ( 'NONE',  ( -0.1472243186433546400, 0.2550000000000000600, 0.1250000000000000000 ) ) ;
#53 = ORIENTED_EDGE ( 'NONE', *, *, #339, .T. ) ;
#54 = CIRCLE ( 'NONE', #231, 0.3838582677165354200 ) ;
#55 = PRESENTATION_LAYER_ASSIGNMENT (  '', '', ( #57 ) ) ;
#56 = ADVANCED_FACE ( 'NONE', ( #20 ), #21, .T. ) ;
#57 = STYLED_ITEM ( 'NONE', ( #263 ), #33 ) ;
#58 = CARTESIAN_POINT ( 'NONE',  ( 0.1472243186433544700, 0.2550000000000001700, -0.1250000000000000000 ) ) ;
#59 = SURFACE_STYLE_USAGE ( .BOTH. , #217 ) ;
#60 = VECTOR ( 'NONE', #228, 39.37007874015748100 ) ;
#61 = ORIENTED_EDGE ( 'NONE', *, *, #321, .F. ) ;
#62 = VECTOR ( 'NONE', #118, 39.37007874015748100 ) ;
#63 = VERTEX_POINT ( 'NONE', #269 ) ;
#64 = ADVANCED_FACE ( 'NONE', ( #120 ), #162, .T. ) ;
#65 = CARTESIAN_POINT ( 'NONE',  ( 0.0000000000000000000, 0.0000000000000000000, -0.1250000000000000000 ) ) ;
#66 = SURFACE_STYLE_USAGE ( .BOTH. , #225 ) ;
#67 = CARTESIAN_POINT ( 'NONE',  ( 0.1472243186433546100, -0.2550000000000000000, 0.1250000000000000000 ) ) ;
#68 = EDGE_CURVE ( 'NONE', #142, #63, #311, .T. ) ;
#69 = ORIENTED_EDGE ( 'NONE', *, *, #188, .T. ) ;
#70 = DIRECTION ( 'NONE',  ( -0.0000000000000000000, -0.0000000000000000000, -1.000000000000000000 ) ) ;
#71 = LINE ( 'NONE', #52, #19 ) ;
#72 = EDGE_CURVE ( 'NONE', #82, #341, #266, .T. ) ;
#73 = DIRECTION ( 'NONE',  ( 0.4999999999999998900, 0.8660254037844386000, 0.0000000000000000000 ) ) ;
#74 =( GEOMETRIC_REPRESENTATION_CONTEXT ( 3 ) GLOBAL_UNCERTAINTY_ASSIGNED_CONTEXT ( ( #46 ) ) GLOBAL_UNIT_ASSIGNED_CONTEXT ( ( #131, #282, #298 ) ) REPRESENTATION_CONTEXT ( 'NONE', 'WORKASPACE' ) );
#75 = ORIENTED_EDGE ( 'NONE', *, *, #322, .T. ) ;
#76 = CARTESIAN_POINT ( 'NONE',  ( 0.1472243186433546100, -0.2550000000000000000, 0.1250000000000000000 ) ) ;
#77 = VERTEX_POINT ( 'NONE', #240 ) ;
#78 = AXIS2_PLACEMENT_3D ( 'NONE', #11, #195, #40 ) ;
#79 = ORIENTED_EDGE ( 'NONE', *, *, #68, .T. ) ;
#80 = DIRECTION ( 'NONE',  ( -0.0000000000000000000, -0.0000000000000000000, -1.000000000000000000 ) ) ;
#81 = VERTEX_POINT ( 'NONE', #207 ) ;
#82 = VERTEX_POINT ( 'NONE', #129 ) ;
#83 = AXIS2_PLACEMENT_3D ( 'NONE', #12, #196, #41 ) ;
#84 = DIRECTION ( 'NONE',  ( -0.4999999999999998900, -0.8660254037844386000, 0.0000000000000000000 ) ) ;
#85 = ORIENTED_EDGE ( 'NONE', *, *, #104, .T. ) ;
#86 = EDGE_CURVE ( 'NONE', #63, #82, #214, .T. ) ;
#87 = DIRECTION ( 'NONE',  ( 1.000000000000000000, 0.0000000000000000000, 0.0000000000000000000 ) ) ;
#88 = ORIENTED_EDGE ( 'NONE', *, *, #38, .T. ) ;
#89 = VECTOR ( 'NONE', #344, 39.37007874015748900 ) ;
#90 = UNCERTAINTY_MEASURE_WITH_UNIT (LENGTH_MEASURE( 1.000000000000000100E-005 ), #93, 'distance_accuracy_value', 'NONE');
#91 = COLOUR_RGB ( '',0.4941176470588235500, 0.4941176470588235500, 0.4941176470588235500 ) ;
#92 = CARTESIAN_POINT ( 'NONE',  ( 0.2944486372867092200, 1.028089255413782600E-017, 0.1250000000000000000 ) ) ;
#93 =( CONVERSION_BASED_UNIT ( 'INCH', #289 ) LENGTH_UNIT ( ) NAMED_UNIT ( #191 ) );
#94 = VERTEX_POINT ( 'NONE', #151 ) ;
#95 = AXIS2_PLACEMENT_3D ( 'NONE', #299, #152, #331 ) ;
#96 = DIRECTION ( 'NONE',  ( 1.000000000000000000, 0.0000000000000000000, 0.0000000000000000000 ) ) ;
#97 = EDGE_CURVE ( 'NONE', #47, #197, #39, .T. ) ;
#98 = CYLINDRICAL_SURFACE ( 'NONE', #235, 0.3838582677165354200 ) ;
#99 = PRODUCT ( '217-3259-STEP', '217-3259-STEP', '', ( #180 ) ) ;
#100 = LINE ( 'NONE', #239, #203 ) ;
#101 = CARTESIAN_POINT ( 'NONE',  ( -0.1472243186433546400, 0.2550000000000000600, 0.1250000000000000000 ) ) ;
#102 =( CONVERSION_BASED_UNIT ( 'INCH', #187 ) LENGTH_UNIT ( ) NAMED_UNIT ( #170 ) );
#103 = LINE ( 'NONE', #201, #23 ) ;
#104 = EDGE_CURVE ( 'NONE', #166, #315, #333, .T. ) ;
#105 = EDGE_LOOP ( 'NONE', ( #61, #145, #346, #190 ) ) ;
#106 = CARTESIAN_POINT ( 'NONE',  ( 0.2944486372867092200, 1.028089255413782600E-017, 0.1250000000000000000 ) ) ;
#107 = PRODUCT_RELATED_PRODUCT_CATEGORY ( 'part', '', ( #99 ) ) ;
#108 = VECTOR ( 'NONE', #132, 39.37007874015748100 ) ;
#109 = EDGE_LOOP ( 'NONE', ( #6, #182, #320, #338, #204, #293 ) ) ;
#110 = ORIENTED_EDGE ( 'NONE', *, *, #343, .T. ) ;
#111 = VECTOR ( 'NONE', #50, 39.37007874015748100 ) ;
#112 = AXIS2_PLACEMENT_3D ( 'NONE', #159, #256, #200 ) ;
#113 = ORIENTED_EDGE ( 'NONE', *, *, #284, .T. ) ;
#114 = PLANE ( 'NONE',  #260 ) ;
#115 = ORIENTED_EDGE ( 'NONE', *, *, #104, .F. ) ;
#116 = DIRECTION ( 'NONE',  ( 3.479190826162944300E-016, -1.000000000000000000, 0.0000000000000000000 ) ) ;
#117 = EDGE_CURVE ( 'NONE', #350, #142, #1, .T. ) ;
#118 = DIRECTION ( 'NONE',  ( -1.000000000000000000, -3.479190826162944300E-016, 0.0000000000000000000 ) ) ;
#119 = EDGE_CURVE ( 'NONE', #158, #63, #34, .T. ) ;
#120 = FACE_OUTER_BOUND ( 'NONE', #25, .T. ) ;
#121 = AXIS2_PLACEMENT_3D ( 'NONE', #65, #251, #96 ) ;
#122 = LINE ( 'NONE', #317, #89 ) ;
#123 = EDGE_LOOP ( 'NONE', ( #329, #319, #307, #314 ) ) ;
#124 = PRESENTATION_STYLE_ASSIGNMENT (( #59 ) ) ;
#125 = CARTESIAN_POINT ( 'NONE',  ( 0.0000000000000000000, 0.0000000000000000000, 0.1250000000000000000 ) ) ;
#126 = AXIS2_PLACEMENT_3D ( 'NONE', #106, #199, #305 ) ;
#127 = CARTESIAN_POINT ( 'NONE',  ( -0.1472243186433545600, -0.2550000000000000000, 0.1250000000000000000 ) ) ;
#128 =( NAMED_UNIT ( * ) SI_UNIT ( $, .STERADIAN. ) SOLID_ANGLE_UNIT ( ) );
#129 = CARTESIAN_POINT ( 'NONE',  ( -0.1472243186433546400, -0.2550000000000000000, -0.1250000000000000000 ) ) ;
#130 = ORIENTED_EDGE ( 'NONE', *, *, #86, .T. ) ;
#131 =( CONVERSION_BASED_UNIT ( 'INCH', #213 ) LENGTH_UNIT ( ) NAMED_UNIT ( #194 ) );
#132 = DIRECTION ( 'NONE',  ( -0.0000000000000000000, -0.0000000000000000000, -1.000000000000000000 ) ) ;
#133 =( NAMED_UNIT ( * ) SI_UNIT ( $, .STERADIAN. ) SOLID_ANGLE_UNIT ( ) );
#134 = PLANE ( 'NONE',  #126 ) ;
#135 = EDGE_LOOP ( 'NONE', ( #306, #308, #295, #43 ) ) ;
#136 = DIRECTION ( 'NONE',  ( -0.8660254037844387100, 0.5000000000000001100, 0.0000000000000000000 ) ) ;
#137 = VECTOR ( 'NONE', #211, 39.37007874015748900 ) ;
#138 = EDGE_LOOP ( 'NONE', ( #150, #210, #304, #13 ) ) ;
#139 = CARTESIAN_POINT ( 'NONE',  ( 0.0000000000000000000, 0.0000000000000000000, 0.1250000000000000000 ) ) ;
#140 = CARTESIAN_POINT ( 'NONE',  ( 0.1472243186433544700, 0.2550000000000001700, -0.1250000000000000000 ) ) ;
#141 = AXIS2_PLACEMENT_3D ( 'NONE', #44, #232, #73 ) ;
#142 = VERTEX_POINT ( 'NONE', #349 ) ;
#143 = DIRECTION ( 'NONE',  ( 0.8660254037844386000, 0.5000000000000001100, -0.0000000000000000000 ) ) ;
#144 = ORIENTED_EDGE ( 'NONE', *, *, #72, .T. ) ;
#145 = ORIENTED_EDGE ( 'NONE', *, *, #336, .F. ) ;
#146 = ORIENTED_EDGE ( 'NONE', *, *, #351, .T. ) ;
#147 = VECTOR ( 'NONE', #238, 39.37007874015748100 ) ;
#148 = DIRECTION ( 'NONE',  ( 1.000000000000000000, 0.0000000000000000000, 0.0000000000000000000 ) ) ;
#149 = DIRECTION ( 'NONE',  ( 0.0000000000000000000, -0.0000000000000000000, 1.000000000000000000 ) ) ;
#150 = ORIENTED_EDGE ( 'NONE', *, *, #303, .F. ) ;
#151 = CARTESIAN_POINT ( 'NONE',  ( -0.3838582677165354200, 0.0000000000000000000, -0.1250000000000000000 ) ) ;
#152 = DIRECTION ( 'NONE',  ( 0.0000000000000000000, 0.0000000000000000000, 1.000000000000000000 ) ) ;
#153 = FACE_OUTER_BOUND ( 'NONE', #138, .T. ) ;
#154 = CARTESIAN_POINT ( 'NONE',  ( -0.2944486372867092800, 1.707404996040164500E-017, 0.1250000000000000000 ) ) ;
#155 = DIRECTION ( 'NONE',  ( 0.0000000000000000000, 0.0000000000000000000, 1.000000000000000000 ) ) ;
#156 = VECTOR ( 'NONE', #268, 39.37007874015748100 ) ;
#157 = DIRECTION ( 'NONE',  ( -1.000000000000000000, 0.0000000000000000000, 0.0000000000000000000 ) ) ;
#158 = VERTEX_POINT ( 'NONE', #154 ) ;
#159 = CARTESIAN_POINT ( 'NONE',  ( 0.0000000000000000000, 0.0000000000000000000, -0.1250000000000000000 ) ) ;
#160 = CARTESIAN_POINT ( 'NONE',  ( 0.2944486372867092200, 1.028089255413782600E-017, -0.1250000000000000000 ) ) ;
#161 = FACE_OUTER_BOUND ( 'NONE', #288, .T. ) ;
#162 = PLANE ( 'NONE',  #230 ) ;
#163 = LINE ( 'NONE', #185, #28 ) ;
#164 = DIRECTION ( 'NONE',  ( -0.0000000000000000000, -0.0000000000000000000, -1.000000000000000000 ) ) ;
#165 = CIRCLE ( 'NONE', #83, 0.3838582677165354200 ) ;
#166 = VERTEX_POINT ( 'NONE', #215 ) ;
#167 = CARTESIAN_POINT ( 'NONE',  ( -0.1472243186433545600, -0.2550000000000000000, -0.1250000000000000000 ) ) ;
#168 = AXIS2_PLACEMENT_3D ( 'NONE', #323, #8, #157 ) ;
#169 = VECTOR ( 'NONE', #328, 39.37007874015748100 ) ;
#170 = DIMENSIONAL_EXPONENTS ( 1.000000000000000000, 0.0000000000000000000, 0.0000000000000000000, 0.0000000000000000000, 0.0000000000000000000, 0.0000000000000000000, 0.0000000000000000000 ) ;
#171 = LINE ( 'NONE', #258, #111 ) ;
#172 = FACE_OUTER_BOUND ( 'NONE', #10, .T. ) ;
#173 = EDGE_LOOP ( 'NONE', ( #334, #221, #17, #227 ) ) ;
#174 = CARTESIAN_POINT ( 'NONE',  ( -0.3838582677165354200, 0.0000000000000000000, 0.1250000000000000000 ) ) ;
#175 = VECTOR ( 'NONE', #70, 39.37007874015748100 ) ;
#176 = CARTESIAN_POINT ( 'NONE',  ( 0.0000000000000000000, 0.0000000000000000000, 0.0000000000000000000 ) ) ;
#177 = LINE ( 'NONE', #206, #147 ) ;
#178 = FACE_OUTER_BOUND ( 'NONE', #173, .T. ) ;
#179 = EDGE_CURVE ( 'NONE', #32, #290, #54, .T. ) ;
#180 = PRODUCT_CONTEXT ( 'NONE', #9, 'mechanical' ) ;
#181 = PLANE ( 'NONE',  #112 ) ;
#182 = ORIENTED_EDGE ( 'NONE', *, *, #310, .F. ) ;
#183 = LINE ( 'NONE', #67, #222 ) ;
#184 = DIRECTION ( 'NONE',  ( -1.000000000000000000, 0.0000000000000000000, 0.0000000000000000000 ) ) ;
#185 = CARTESIAN_POINT ( 'NONE',  ( -0.2944486372867092200, 2.527242374660742700E-017, 0.1250000000000000000 ) ) ;
#186 = CLOSED_SHELL ( 'NONE', ( #246, #294, #273, #35, #56, #4, #265, #30, #250, #64 ) ) ;
#187 = LENGTH_MEASURE_WITH_UNIT ( LENGTH_MEASURE( 0.02539999999999999900 ), #252 );
#188 = EDGE_CURVE ( 'NONE', #77, #82, #262, .T. ) ;
#189 = FILL_AREA_STYLE_COLOUR ( '', #326 ) ;
#190 = ORIENTED_EDGE ( 'NONE', *, *, #97, .T. ) ;
#191 = DIMENSIONAL_EXPONENTS ( 1.000000000000000000, 0.0000000000000000000, 0.0000000000000000000, 0.0000000000000000000, 0.0000000000000000000, 0.0000000000000000000, 0.0000000000000000000 ) ;
#192 = EDGE_LOOP ( 'NONE', ( #113, #340 ) ) ;
#193 = FILL_AREA_STYLE_COLOUR ( '', #91 ) ;
#194 = DIMENSIONAL_EXPONENTS ( 1.000000000000000000, 0.0000000000000000000, 0.0000000000000000000, 0.0000000000000000000, 0.0000000000000000000, 0.0000000000000000000, 0.0000000000000000000 ) ;
#195 = DIRECTION ( 'NONE',  ( 0.0000000000000000000, 0.0000000000000000000, 1.000000000000000000 ) ) ;
#196 = DIRECTION ( 'NONE',  ( 0.0000000000000000000, 0.0000000000000000000, 1.000000000000000000 ) ) ;
#197 = VERTEX_POINT ( 'NONE', #3 ) ;
#198 = APPLICATION_PROTOCOL_DEFINITION ( 'draft international standard', 'automotive_design', 1998, #14 ) ;
#199 = DIRECTION ( 'NONE',  ( -0.8660254037844386000, -0.5000000000000002200, 0.0000000000000000000 ) ) ;
#200 = DIRECTION ( 'NONE',  ( 1.000000000000000000, 0.0000000000000000000, -0.0000000000000000000 ) ) ;
#201 = CARTESIAN_POINT ( 'NONE',  ( 0.2944486372867092200, 1.028089255413782600E-017, 0.1250000000000000000 ) ) ;
#202 = ORIENTED_EDGE ( 'NONE', *, *, #38, .F. ) ;
#203 = VECTOR ( 'NONE', #80, 39.37007874015748100 ) ;
#204 = ORIENTED_EDGE ( 'NONE', *, *, #339, .F. ) ;
#205 = CARTESIAN_POINT ( 'NONE',  ( 0.1472243186433544700, 0.2550000000000001700, 0.1250000000000000000 ) ) ;
#206 = CARTESIAN_POINT ( 'NONE',  ( 0.3838582677165354200, 4.700907988853029100E-017, 0.1250000000000000000 ) ) ;
#207 = CARTESIAN_POINT ( 'NONE',  ( 0.3838582677165354200, 4.700907988853029100E-017, -0.1250000000000000000 ) ) ;
#208 = FACE_BOUND ( 'NONE', #109, .T. ) ;
#209 = DIRECTION ( 'NONE',  ( 0.5000000000000001100, -0.8660254037844386000, 0.0000000000000000000 ) ) ;
#210 = ORIENTED_EDGE ( 'NONE', *, *, #284, .F. ) ;
#211 = DIRECTION ( 'NONE',  ( -0.4999999999999998900, -0.8660254037844386000, 0.0000000000000000000 ) ) ;
#212 =( GEOMETRIC_REPRESENTATION_CONTEXT ( 3 ) GLOBAL_UNCERTAINTY_ASSIGNED_CONTEXT ( ( #90 ) ) GLOBAL_UNIT_ASSIGNED_CONTEXT ( ( #93, #270, #128 ) ) REPRESENTATION_CONTEXT ( 'NONE', 'WORKASPACE' ) );
#213 = LENGTH_MEASURE_WITH_UNIT ( LENGTH_MEASURE( 0.02539999999999999900 ), #274 );
#214 = LINE ( 'NONE', #271, #169 ) ;
#215 = CARTESIAN_POINT ( 'NONE',  ( 0.1472243186433544700, 0.2550000000000001700, 0.1250000000000000000 ) ) ;
#216 = SURFACE_STYLE_FILL_AREA ( #31 ) ;
#217 = SURFACE_SIDE_STYLE ('',( #216 ) ) ;
#218 = MECHANICAL_DESIGN_GEOMETRIC_PRESENTATION_REPRESENTATION (  '', ( #223 ), #212 ) ;
#219 = SURFACE_STYLE_FILL_AREA ( #37 ) ;
#220 = PRESENTATION_LAYER_ASSIGNMENT (  '', '', ( #223 ) ) ;
#221 = ORIENTED_EDGE ( 'NONE', *, *, #303, .T. ) ;
#222 = VECTOR ( 'NONE', #226, 39.37007874015748900 ) ;
#223 = STYLED_ITEM ( 'NONE', ( #124 ), #234 ) ;
#224 = CARTESIAN_POINT ( 'NONE',  ( 0.1472243186433544700, 0.2550000000000001700, 0.1250000000000000000 ) ) ;
#225 = SURFACE_SIDE_STYLE ('',( #219 ) ) ;
#226 = DIRECTION ( 'NONE',  ( 0.5000000000000000000, 0.8660254037844386000, 0.0000000000000000000 ) ) ;
#227 = ORIENTED_EDGE ( 'NONE', *, *, #277, .F. ) ;
#228 = DIRECTION ( 'NONE',  ( -0.0000000000000000000, -0.0000000000000000000, -1.000000000000000000 ) ) ;
#229 = LINE ( 'NONE', #174, #254 ) ;
#230 = AXIS2_PLACEMENT_3D ( 'NONE', #324, #143, #318 ) ;
#231 = AXIS2_PLACEMENT_3D ( 'NONE', #125, #291, #148 ) ;
#232 = DIRECTION ( 'NONE',  ( 0.8660254037844387100, -0.4999999999999999400, 0.0000000000000000000 ) ) ;
#233 = AXIS2_PLACEMENT_3D ( 'NONE', #127, #292, #149 ) ;
#234 = MANIFOLD_SOLID_BREP ( 'Boss-Extrude1', #186 ) ;
#235 = AXIS2_PLACEMENT_3D ( 'NONE', #139, #164, #184 ) ;
#236 = DIRECTION ( 'NONE',  ( -0.5000000000000000000, -0.8660254037844386000, 0.0000000000000000000 ) ) ;
#237 = FACE_BOUND ( 'NONE', #29, .T. ) ;
#238 = DIRECTION ( 'NONE',  ( -0.0000000000000000000, -0.0000000000000000000, -1.000000000000000000 ) ) ;
#239 = CARTESIAN_POINT ( 'NONE',  ( 0.1472243186433546100, -0.2550000000000000000, 0.1250000000000000000 ) ) ;
#240 = CARTESIAN_POINT ( 'NONE',  ( -0.1472243186433545600, -0.2550000000000000000, 0.1250000000000000000 ) ) ;
#241 = VECTOR ( 'NONE', #247, 39.37007874015748100 ) ;
#242 = CIRCLE ( 'NONE', #121, 0.3838582677165354200 ) ;
#243 = AXIS2_PLACEMENT_3D ( 'NONE', #205, #116, #281 ) ;
#244 = CARTESIAN_POINT ( 'NONE',  ( -0.1472243186433545600, -0.2550000000000000000, 0.1250000000000000000 ) ) ;
#245 = SHAPE_DEFINITION_REPRESENTATION ( #264, #33 ) ;
#246 = ADVANCED_FACE ( 'NONE', ( #178 ), #287, .T. ) ;
#247 = DIRECTION ( 'NONE',  ( -1.000000000000000000, -3.479190826162944300E-016, 0.0000000000000000000 ) ) ;
#248 =( LENGTH_UNIT ( ) NAMED_UNIT ( * ) SI_UNIT ( $, .METRE. ) );
#249 = FACE_OUTER_BOUND ( 'NONE', #135, .T. ) ;
#250 = ADVANCED_FACE ( 'NONE', ( #249 ), #16, .T. ) ;
#251 = DIRECTION ( 'NONE',  ( 0.0000000000000000000, 0.0000000000000000000, 1.000000000000000000 ) ) ;
#252 =( LENGTH_UNIT ( ) NAMED_UNIT ( * ) SI_UNIT ( $, .METRE. ) );
#253 = DIRECTION ( 'NONE',  ( -0.5000000000000001100, 0.8660254037844384900, 0.0000000000000000000 ) ) ;
#254 = VECTOR ( 'NONE', #7, 39.37007874015748100 ) ;
#255 = CARTESIAN_POINT ( 'NONE',  ( -0.2944486372867092200, 2.527242374660742700E-017, 0.1250000000000000000 ) ) ;
#256 = DIRECTION ( 'NONE',  ( 0.0000000000000000000, 0.0000000000000000000, 1.000000000000000000 ) ) ;
#257 = ORIENTED_EDGE ( 'NONE', *, *, #97, .F. ) ;
#258 = CARTESIAN_POINT ( 'NONE',  ( -0.1472243186433545600, -0.2550000000000000000, 0.1250000000000000000 ) ) ;
#259 = CARTESIAN_POINT ( 'NONE',  ( 0.1472243186433544700, 0.2550000000000001700, 0.1250000000000000000 ) ) ;
#260 = AXIS2_PLACEMENT_3D ( 'NONE', #316, #136, #236 ) ;
#261 = ORIENTED_EDGE ( 'NONE', *, *, #351, .F. ) ;
#262 = LINE ( 'NONE', #244, #156 ) ;
#263 = PRESENTATION_STYLE_ASSIGNMENT (( #66 ) ) ;
#264 = PRODUCT_DEFINITION_SHAPE ( 'NONE', 'NONE',  #18 ) ;
#265 = ADVANCED_FACE ( 'NONE', ( #172 ), #134, .T. ) ;
#266 = LINE ( 'NONE', #167, #286 ) ;
#267 = UNCERTAINTY_MEASURE_WITH_UNIT (LENGTH_MEASURE( 1.000000000000000100E-005 ), #102, 'distance_accuracy_value', 'NONE');
#268 = DIRECTION ( 'NONE',  ( -0.0000000000000000000, -0.0000000000000000000, -1.000000000000000000 ) ) ;
#269 = CARTESIAN_POINT ( 'NONE',  ( -0.2944486372867092200, 2.527242374660742700E-017, -0.1250000000000000000 ) ) ;
#270 =( NAMED_UNIT ( * ) PLANE_ANGLE_UNIT ( ) SI_UNIT ( $, .RADIAN. ) );
#271 = CARTESIAN_POINT ( 'NONE',  ( -0.2944486372867092200, 2.527242374660742700E-017, -0.1250000000000000000 ) ) ;
#272 = PLANE ( 'NONE',  #78 ) ;
#273 = ADVANCED_FACE ( 'NONE', ( #285, #237 ), #181, .F. ) ;
#274 =( LENGTH_UNIT ( ) NAMED_UNIT ( * ) SI_UNIT ( $, .METRE. ) );
#275 = CARTESIAN_POINT ( 'NONE',  ( -0.3838582677165354200, 0.0000000000000000000, 0.1250000000000000000 ) ) ;
#276 =( NAMED_UNIT ( * ) PLANE_ANGLE_UNIT ( ) SI_UNIT ( $, .RADIAN. ) );
#277 = EDGE_CURVE ( 'NONE', #290, #94, #229, .T. ) ;
#278 = DIRECTION ( 'NONE',  ( -0.5000000000000001100, 0.8660254037844384900, 0.0000000000000000000 ) ) ;
#279 = EDGE_CURVE ( 'NONE', #81, #94, #242, .T. ) ;
#280 = VECTOR ( 'NONE', #36, 39.37007874015748100 ) ;
#281 = DIRECTION ( 'NONE',  ( 1.000000000000000000, 3.479190826162944300E-016, 0.0000000000000000000 ) ) ;
#282 =( NAMED_UNIT ( * ) PLANE_ANGLE_UNIT ( ) SI_UNIT ( $, .RADIAN. ) );
#283 = VECTOR ( 'NONE', #253, 39.37007874015748900 ) ;
#284 = EDGE_CURVE ( 'NONE', #290, #32, #302, .T. ) ;
#285 = FACE_OUTER_BOUND ( 'NONE', #345, .T. ) ;
#286 = VECTOR ( 'NONE', #87, 39.37007874015748100 ) ;
#287 = CYLINDRICAL_SURFACE ( 'NONE', #168, 0.3838582677165354200 ) ;
#288 = EDGE_LOOP ( 'NONE', ( #202, #115, #53, #327 ) ) ;
#289 = LENGTH_MEASURE_WITH_UNIT ( LENGTH_MEASURE( 0.02539999999999999900 ), #248 );
#290 = VERTEX_POINT ( 'NONE', #275 ) ;
#291 = DIRECTION ( 'NONE',  ( 0.0000000000000000000, 0.0000000000000000000, 1.000000000000000000 ) ) ;
#292 = DIRECTION ( 'NONE',  ( 0.0000000000000000000, 1.000000000000000000, 0.0000000000000000000 ) ) ;
#293 = ORIENTED_EDGE ( 'NONE', *, *, #343, .F. ) ;
#294 = ADVANCED_FACE ( 'NONE', ( #313, #208 ), #272, .T. ) ;
#295 = ORIENTED_EDGE ( 'NONE', *, *, #325, .T. ) ;
#296 = CARTESIAN_POINT ( 'NONE',  ( 0.2944486372867092200, 1.028089255413782600E-017, 0.1250000000000000000 ) ) ;
#297 = ORIENTED_EDGE ( 'NONE', *, *, #348, .F. ) ;
#298 =( NAMED_UNIT ( * ) SI_UNIT ( $, .STERADIAN. ) SOLID_ANGLE_UNIT ( ) );
#299 = CARTESIAN_POINT ( 'NONE',  ( 0.0000000000000000000, 0.0000000000000000000, 0.1250000000000000000 ) ) ;
#300 = LINE ( 'NONE', #58, #241 ) ;
#301 = EDGE_CURVE ( 'NONE', #342, #47, #183, .T. ) ;
#302 = CIRCLE ( 'NONE', #95, 0.3838582677165354200 ) ;
#303 = EDGE_CURVE ( 'NONE', #32, #81, #177, .T. ) ;
#304 = ORIENTED_EDGE ( 'NONE', *, *, #277, .T. ) ;
#305 = DIRECTION ( 'NONE',  ( 0.5000000000000001100, -0.8660254037844384900, 0.0000000000000000000 ) ) ;
#306 = ORIENTED_EDGE ( 'NONE', *, *, #68, .F. ) ;
#307 = ORIENTED_EDGE ( 'NONE', *, *, #310, .T. ) ;
#308 = ORIENTED_EDGE ( 'NONE', *, *, #117, .F. ) ;
#309 = CARTESIAN_POINT ( 'NONE',  ( -0.1472243186433546400, 0.2550000000000000600, 0.1250000000000000000 ) ) ;
#310 = EDGE_CURVE ( 'NONE', #77, #342, #171, .T. ) ;
#311 = LINE ( 'NONE', #26, #137 ) ;
#312 = CARTESIAN_POINT ( 'NONE',  ( 0.3838582677165354200, 4.700907988853029100E-017, 0.1250000000000000000 ) ) ;
#313 = FACE_OUTER_BOUND ( 'NONE', #192, .T. ) ;
#314 = ORIENTED_EDGE ( 'NONE', *, *, #336, .T. ) ;
#315 = VERTEX_POINT ( 'NONE', #140 ) ;
#316 = CARTESIAN_POINT ( 'NONE',  ( 0.1472243186433546100, -0.2550000000000000000, 0.1250000000000000000 ) ) ;
#317 = CARTESIAN_POINT ( 'NONE',  ( 0.1472243186433546100, -0.2550000000000000000, -0.1250000000000000000 ) ) ;
#318 = DIRECTION ( 'NONE',  ( -0.5000000000000001100, 0.8660254037844386000, 0.0000000000000000000 ) ) ;
#319 = ORIENTED_EDGE ( 'NONE', *, *, #188, .F. ) ;
#320 = ORIENTED_EDGE ( 'NONE', *, *, #322, .F. ) ;
#321 = EDGE_CURVE ( 'NONE', #341, #197, #122, .T. ) ;
#322 = EDGE_CURVE ( 'NONE', #158, #77, #163, .T. ) ;
#323 = CARTESIAN_POINT ( 'NONE',  ( 0.0000000000000000000, 0.0000000000000000000, 0.1250000000000000000 ) ) ;
#324 = CARTESIAN_POINT ( 'NONE',  ( -0.2944486372867092200, 2.527242374660742700E-017, 0.1250000000000000000 ) ) ;
#325 = EDGE_CURVE ( 'NONE', #350, #158, #71, .T. ) ;
#326 = COLOUR_RGB ( '',0.4941176470588235500, 0.4941176470588235500, 0.4941176470588235500 ) ;
#327 = ORIENTED_EDGE ( 'NONE', *, *, #117, .T. ) ;
#328 = DIRECTION ( 'NONE',  ( 0.5000000000000001100, -0.8660254037844386000, 0.0000000000000000000 ) ) ;
#329 = ORIENTED_EDGE ( 'NONE', *, *, #72, .F. ) ;
#330 = APPLICATION_PROTOCOL_DEFINITION ( 'draft international standard', 'automotive_design', 1998, #9 ) ;
#331 = DIRECTION ( 'NONE',  ( 1.000000000000000000, 0.0000000000000000000, 0.0000000000000000000 ) ) ;
#332 = FACE_OUTER_BOUND ( 'NONE', #105, .T. ) ;
#333 = LINE ( 'NONE', #224, #175 ) ;
#334 = ORIENTED_EDGE ( 'NONE', *, *, #179, .F. ) ;
#335 = DIRECTION ( 'NONE',  ( 1.000000000000000000, 0.0000000000000000000, 0.0000000000000000000 ) ) ;
#336 = EDGE_CURVE ( 'NONE', #342, #341, #100, .T. ) ;
#337 = ORIENTED_EDGE ( 'NONE', *, *, #279, .F. ) ;
#338 = ORIENTED_EDGE ( 'NONE', *, *, #325, .F. ) ;
#339 = EDGE_CURVE ( 'NONE', #166, #350, #42, .T. ) ;
#340 = ORIENTED_EDGE ( 'NONE', *, *, #179, .T. ) ;
#341 = VERTEX_POINT ( 'NONE', #45 ) ;
#342 = VERTEX_POINT ( 'NONE', #76 ) ;
#343 = EDGE_CURVE ( 'NONE', #47, #166, #103, .T. ) ;
#344 = DIRECTION ( 'NONE',  ( 0.5000000000000000000, 0.8660254037844386000, 0.0000000000000000000 ) ) ;
#345 = EDGE_LOOP ( 'NONE', ( #297, #337 ) ) ;
#346 = ORIENTED_EDGE ( 'NONE', *, *, #301, .T. ) ;
#347 = ORIENTED_EDGE ( 'NONE', *, *, #86, .F. ) ;
#348 = EDGE_CURVE ( 'NONE', #94, #81, #165, .T. ) ;
#349 = CARTESIAN_POINT ( 'NONE',  ( -0.1472243186433546400, 0.2550000000000000600, -0.1250000000000000000 ) ) ;
#350 = VERTEX_POINT ( 'NONE', #309 ) ;
#351 = EDGE_CURVE ( 'NONE', #197, #315, #15, .T. ) ;
ENDSEC;
END-ISO-10303-21;
