ISO-10303-21;
HEADER;
FILE_DESCRIPTION (( 'STEP AP214' ),
    '1' );
FILE_NAME ('217-3258-STEP.STEP',
    '2013-12-06T21:07:47',
    ( '' ),
    ( '' ),
    'SwSTEP 2.0',
    'SolidWorks 2013',
    '' );
FILE_SCHEMA (( 'AUTOMOTIVE_DESIGN' ));
ENDSEC;

DATA;
#1 = EDGE_LOOP ( 'NONE', ( #217, #257, #3, #258 ) ) ;
#2 = DIRECTION ( 'NONE',  ( 0.0000000000000000000, 0.0000000000000000000, 1.000000000000000000 ) ) ;
#3 = ORIENTED_EDGE ( 'NONE', *, *, #340, .T. ) ;
#4 = ORIENTED_EDGE ( 'NONE', *, *, #68, .T. ) ;
#5 = DIRECTION ( 'NONE',  ( -0.5000000000000004400, 0.8660254037844383700, 0.0000000000000000000 ) ) ;
#6 = EDGE_CURVE ( 'NONE', #33, #325, #223, .T. ) ;
#7 = FACE_OUTER_BOUND ( 'NONE', #111, .T. ) ;
#8 = CARTESIAN_POINT ( 'NONE',  ( 0.0000000000000000000, 0.0000000000000000000, 0.03125000000000000000 ) ) ;
#9 = DIRECTION ( 'NONE',  ( 0.8660254037844388200, -0.4999999999999997200, 0.0000000000000000000 ) ) ;
#10 = ORIENTED_EDGE ( 'NONE', *, *, #313, .F. ) ;
#11 = DIRECTION ( 'NONE',  ( 0.0000000000000000000, 0.0000000000000000000, 1.000000000000000000 ) ) ;
#12 = DIRECTION ( 'NONE',  ( 1.000000000000000000, 0.0000000000000000000, 0.0000000000000000000 ) ) ;
#13 = DIRECTION ( 'NONE',  ( 1.000000000000000000, 1.536266079084936400E-016, 0.0000000000000000000 ) ) ;
#14 =( NAMED_UNIT ( * ) PLANE_ANGLE_UNIT ( ) SI_UNIT ( $, .RADIAN. ) );
#15 = EDGE_LOOP ( 'NONE', ( #226, #291, #229, #287, #45, #214 ) ) ;
#16 = EDGE_LOOP ( 'NONE', ( #10, #51, #332, #37 ) ) ;
#17 = CARTESIAN_POINT ( 'NONE',  ( -0.1111399268190030300, 0.1925000000000000600, 0.03125000000000000000 ) ) ;
#18 = CARTESIAN_POINT ( 'NONE',  ( -0.1111399268190029600, -0.1925000000000001400, 0.03125000000000000000 ) ) ;
#19 = EDGE_CURVE ( 'NONE', #325, #315, #320, .T. ) ;
#20 = DIRECTION ( 'NONE',  ( -0.0000000000000000000, -0.0000000000000000000, -1.000000000000000000 ) ) ;
#21 = LINE ( 'NONE', #63, #64 ) ;
#22 = EDGE_LOOP ( 'NONE', ( #178, #167 ) ) ;
#23 = VERTEX_POINT ( 'NONE', #242 ) ;
#24 = ADVANCED_FACE ( 'NONE', ( #326 ), #290, .T. ) ;
#25 = LINE ( 'NONE', #114, #75 ) ;
#26 = ADVANCED_FACE ( 'NONE', ( #153 ), #275, .T. ) ;
#27 = ORIENTED_EDGE ( 'NONE', *, *, #329, .F. ) ;
#28 = UNCERTAINTY_MEASURE_WITH_UNIT (LENGTH_MEASURE( 1.000000000000000100E-005 ), #312, 'distance_accuracy_value', 'NONE');
#29 = EDGE_CURVE ( 'NONE', #139, #23, #280, .T. ) ;
#30 = VECTOR ( 'NONE', #13, 39.37007874015748100 ) ;
#31 = PRODUCT_RELATED_PRODUCT_CATEGORY ( 'part', '', ( #97 ) ) ;
#32 = VECTOR ( 'NONE', #86, 39.37007874015748100 ) ;
#33 = VERTEX_POINT ( 'NONE', #311 ) ;
#34 = PRODUCT_DEFINITION_FORMATION_WITH_SPECIFIED_SOURCE ( 'ANY', '', #97, .NOT_KNOWN. ) ;
#35 = VECTOR ( 'NONE', #195, 39.37007874015748100 ) ;
#36 = FILL_AREA_STYLE_COLOUR ( '', #142 ) ;
#37 = ORIENTED_EDGE ( 'NONE', *, *, #348, .T. ) ;
#38 = DIRECTION ( 'NONE',  ( -0.4999999999999996100, -0.8660254037844388200, 0.0000000000000000000 ) ) ;
#39 = DIRECTION ( 'NONE',  ( -0.0000000000000000000, -0.0000000000000000000, -1.000000000000000000 ) ) ;
#40 = PRODUCT_CONTEXT ( 'NONE', #227, 'mechanical' ) ;
#41 = DIRECTION ( 'NONE',  ( 0.0000000000000000000, 0.0000000000000000000, 1.000000000000000000 ) ) ;
#42 = ORIENTED_EDGE ( 'NONE', *, *, #313, .T. ) ;
#43 = PLANE ( 'NONE',  #262 ) ;
#44 = DIRECTION ( 'NONE',  ( 0.0000000000000000000, 0.0000000000000000000, 1.000000000000000000 ) ) ;
#45 = ORIENTED_EDGE ( 'NONE', *, *, #19, .T. ) ;
#46 = ORIENTED_EDGE ( 'NONE', *, *, #347, .F. ) ;
#47 = LENGTH_MEASURE_WITH_UNIT ( LENGTH_MEASURE( 0.02539999999999999900 ), #117 );
#48 = ADVANCED_FACE ( 'NONE', ( #271 ), #334, .T. ) ;
#49 = CARTESIAN_POINT ( 'NONE',  ( 0.1111399268190029600, -0.1925000000000000900, 0.03125000000000000000 ) ) ;
#50 = DIRECTION ( 'NONE',  ( -0.8660254037844383700, -0.5000000000000004400, 0.0000000000000000000 ) ) ;
#51 = ORIENTED_EDGE ( 'NONE', *, *, #323, .F. ) ;
#52 = ORIENTED_EDGE ( 'NONE', *, *, #246, .T. ) ;
#53 = EDGE_CURVE ( 'NONE', #204, #33, #159, .T. ) ;
#54 = UNCERTAINTY_MEASURE_WITH_UNIT (LENGTH_MEASURE( 1.000000000000000100E-005 ), #308, 'distance_accuracy_value', 'NONE');
#55 = ADVANCED_FACE ( 'NONE', ( #266 ), #102, .T. ) ;
#56 = EDGE_CURVE ( 'NONE', #344, #325, #188, .T. ) ;
#57 = ADVANCED_FACE ( 'NONE', ( #209 ), #43, .T. ) ;
#58 = EDGE_LOOP ( 'NONE', ( #338, #346, #349, #100 ) ) ;
#59 = VERTEX_POINT ( 'NONE', #339 ) ;
#60 = PRODUCT_DEFINITION ( 'UNKNOWN', '', #34, #273 ) ;
#61 = VERTEX_POINT ( 'NONE', #143 ) ;
#62 = ORIENTED_EDGE ( 'NONE', *, *, #327, .F. ) ;
#63 = CARTESIAN_POINT ( 'NONE',  ( -0.1111399268190029600, -0.1925000000000001400, 0.03125000000000000000 ) ) ;
#64 = VECTOR ( 'NONE', #218, 39.37007874015748100 ) ;
#65 = CARTESIAN_POINT ( 'NONE',  ( 0.2222798536380059300, 6.082630298393085800E-017, -0.03125000000000000000 ) ) ;
#66 = DIRECTION ( 'NONE',  ( -0.4999999999999996100, -0.8660254037844388200, 0.0000000000000000000 ) ) ;
#67 = AXIS2_PLACEMENT_3D ( 'NONE', #148, #11, #191 ) ;
#68 = EDGE_CURVE ( 'NONE', #78, #85, #196, .T. ) ;
#69 = VECTOR ( 'NONE', #146, 39.37007874015748100 ) ;
#70 = FILL_AREA_STYLE_COLOUR ( '', #166 ) ;
#71 = APPLICATION_PROTOCOL_DEFINITION ( 'draft international standard', 'automotive_design', 1998, #231 ) ;
#72 = CARTESIAN_POINT ( 'NONE',  ( -0.3125000000000000000, 0.0000000000000000000, -0.03125000000000000000 ) ) ;
#73 = DIRECTION ( 'NONE',  ( -0.0000000000000000000, -0.0000000000000000000, -1.000000000000000000 ) ) ;
#74 = CIRCLE ( 'NONE', #138, 0.3125000000000000000 ) ;
#75 = VECTOR ( 'NONE', #66, 39.37007874015748900 ) ;
#76 =( GEOMETRIC_REPRESENTATION_CONTEXT ( 3 ) GLOBAL_UNCERTAINTY_ASSIGNED_CONTEXT ( ( #28 ) ) GLOBAL_UNIT_ASSIGNED_CONTEXT ( ( #312, #145, #335 ) ) REPRESENTATION_CONTEXT ( 'NONE', 'WORKASPACE' ) );
#77 = MECHANICAL_DESIGN_GEOMETRIC_PRESENTATION_REPRESENTATION (  '', ( #90 ), #76 ) ;
#78 = VERTEX_POINT ( 'NONE', #310 ) ;
#79 = CARTESIAN_POINT ( 'NONE',  ( 0.2222798536380059300, 6.082630298393085800E-017, -0.03125000000000000000 ) ) ;
#80 = ADVANCED_FACE ( 'NONE', ( #250, #203 ), #171, .T. ) ;
#81 = CARTESIAN_POINT ( 'NONE',  ( -0.1111399268190029600, -0.1925000000000001400, -0.03125000000000000000 ) ) ;
#82 = ADVANCED_FACE ( 'NONE', ( #7 ), #192, .T. ) ;
#83 = PRESENTATION_LAYER_ASSIGNMENT (  '', '', ( #90 ) ) ;
#84 = EDGE_LOOP ( 'NONE', ( #206, #182, #199, #200 ) ) ;
#85 = VERTEX_POINT ( 'NONE', #72 ) ;
#86 = DIRECTION ( 'NONE',  ( 0.4999999999999996100, 0.8660254037844388200, 0.0000000000000000000 ) ) ;
#87 = VECTOR ( 'NONE', #105, 39.37007874015748100 ) ;
#88 = DIRECTION ( 'NONE',  ( -0.0000000000000000000, -0.0000000000000000000, -1.000000000000000000 ) ) ;
#89 = DIRECTION ( 'NONE',  ( 0.5000000000000000000, -0.8660254037844386000, 0.0000000000000000000 ) ) ;
#90 = STYLED_ITEM ( 'NONE', ( #279 ), #302 ) ;
#91 = SURFACE_SIDE_STYLE ('',( #120 ) ) ;
#92 = EDGE_CURVE ( 'NONE', #94, #59, #239, .T. ) ;
#93 = ORIENTED_EDGE ( 'NONE', *, *, #238, .F. ) ;
#94 = VERTEX_POINT ( 'NONE', #216 ) ;
#95 = SURFACE_SIDE_STYLE ('',( #307 ) ) ;
#96 =( NAMED_UNIT ( * ) PLANE_ANGLE_UNIT ( ) SI_UNIT ( $, .RADIAN. ) );
#97 = PRODUCT ( '217-3258-STEP', '217-3258-STEP', '', ( #40 ) ) ;
#98 = LINE ( 'NONE', #241, #32 ) ;
#99 = CARTESIAN_POINT ( 'NONE',  ( 0.0000000000000000000, 0.0000000000000000000, -0.03125000000000000000 ) ) ;
#100 = ORIENTED_EDGE ( 'NONE', *, *, #29, .T. ) ;
#101 = CARTESIAN_POINT ( 'NONE',  ( 0.0000000000000000000, 0.0000000000000000000, 0.03125000000000000000 ) ) ;
#102 = PLANE ( 'NONE',  #276 ) ;
#103 = LINE ( 'NONE', #264, #30 ) ;
#104 = PRESENTATION_STYLE_ASSIGNMENT (( #278 ) ) ;
#105 = DIRECTION ( 'NONE',  ( -0.0000000000000000000, -0.0000000000000000000, -1.000000000000000000 ) ) ;
#106 = ORIENTED_EDGE ( 'NONE', *, *, #318, .F. ) ;
#107 = FACE_OUTER_BOUND ( 'NONE', #58, .T. ) ;
#108 =( GEOMETRIC_REPRESENTATION_CONTEXT ( 3 ) GLOBAL_UNCERTAINTY_ASSIGNED_CONTEXT ( ( #174 ) ) GLOBAL_UNIT_ASSIGNED_CONTEXT ( ( #175, #14, #170 ) ) REPRESENTATION_CONTEXT ( 'NONE', 'WORKASPACE' ) );
#109 = DIMENSIONAL_EXPONENTS ( 1.000000000000000000, 0.0000000000000000000, 0.0000000000000000000, 0.0000000000000000000, 0.0000000000000000000, 0.0000000000000000000, 0.0000000000000000000 ) ;
#110 = ORIENTED_EDGE ( 'NONE', *, *, #29, .F. ) ;
#111 = EDGE_LOOP ( 'NONE', ( #106, #110, #118, #136 ) ) ;
#112 = EDGE_CURVE ( 'NONE', #169, #33, #261, .T. ) ;
#113 = LINE ( 'NONE', #321, #87 ) ;
#114 = CARTESIAN_POINT ( 'NONE',  ( -0.1111399268190030300, 0.1925000000000000600, 0.03125000000000000000 ) ) ;
#115 = AXIS2_PLACEMENT_3D ( 'NONE', #99, #285, #128 ) ;
#116 = CARTESIAN_POINT ( 'NONE',  ( -0.3125000000000000000, 0.0000000000000000000, 0.03125000000000000000 ) ) ;
#117 =( LENGTH_UNIT ( ) NAMED_UNIT ( * ) SI_UNIT ( $, .METRE. ) );
#118 = ORIENTED_EDGE ( 'NONE', *, *, #238, .T. ) ;
#119 = DIRECTION ( 'NONE',  ( -0.5000000000000000000, 0.8660254037844386000, 0.0000000000000000000 ) ) ;
#120 = SURFACE_STYLE_FILL_AREA ( #256 ) ;
#121 =( LENGTH_UNIT ( ) NAMED_UNIT ( * ) SI_UNIT ( $, .METRE. ) );
#122 = DIRECTION ( 'NONE',  ( -0.8660254037844388200, 0.4999999999999996100, 0.0000000000000000000 ) ) ;
#123 = EDGE_LOOP ( 'NONE', ( #183, #42, #4, #46 ) ) ;
#124 = ORIENTED_EDGE ( 'NONE', *, *, #329, .T. ) ;
#125 = CARTESIAN_POINT ( 'NONE',  ( 0.2222798536380059300, 6.082630298393085800E-017, 0.03125000000000000000 ) ) ;
#126 = AXIS2_PLACEMENT_3D ( 'NONE', #18, #289, #132 ) ;
#127 = PRODUCT_DEFINITION_SHAPE ( 'NONE', 'NONE',  #60 ) ;
#128 = DIRECTION ( 'NONE',  ( 1.000000000000000000, 0.0000000000000000000, 0.0000000000000000000 ) ) ;
#129 = DIRECTION ( 'NONE',  ( -0.0000000000000000000, -0.0000000000000000000, -1.000000000000000000 ) ) ;
#130 = DIRECTION ( 'NONE',  ( 1.536266079084936900E-016, -1.000000000000000000, 0.0000000000000000000 ) ) ;
#131 = VERTEX_POINT ( 'NONE', #219 ) ;
#132 = DIRECTION ( 'NONE',  ( -1.000000000000000000, -1.536266079084936400E-016, 0.0000000000000000000 ) ) ;
#133 = DIRECTION ( 'NONE',  ( -1.000000000000000000, -1.536266079084936900E-016, 0.0000000000000000000 ) ) ;
#134 = VECTOR ( 'NONE', #306, 39.37007874015748100 ) ;
#135 = CARTESIAN_POINT ( 'NONE',  ( 0.2222798536380059300, 6.082630298393085800E-017, 0.03125000000000000000 ) ) ;
#136 = ORIENTED_EDGE ( 'NONE', *, *, #298, .T. ) ;
#137 = VECTOR ( 'NONE', #5, 39.37007874015748100 ) ;
#138 = AXIS2_PLACEMENT_3D ( 'NONE', #164, #2, #184 ) ;
#139 = VERTEX_POINT ( 'NONE', #305 ) ;
#140 = LINE ( 'NONE', #277, #134 ) ;
#141 = CARTESIAN_POINT ( 'NONE',  ( 0.0000000000000000000, 0.0000000000000000000, 0.03125000000000000000 ) ) ;
#142 = COLOUR_RGB ( '',0.4941176470588235500, 0.4941176470588235500, 0.4941176470588235500 ) ;
#143 = CARTESIAN_POINT ( 'NONE',  ( -0.2222798536380059300, -6.829619984160658000E-017, 0.03125000000000000000 ) ) ;
#144 = CARTESIAN_POINT ( 'NONE',  ( -0.1111399268190030300, 0.1925000000000000600, 0.03125000000000000000 ) ) ;
#145 =( NAMED_UNIT ( * ) PLANE_ANGLE_UNIT ( ) SI_UNIT ( $, .RADIAN. ) );
#146 = DIRECTION ( 'NONE',  ( -0.5000000000000004400, 0.8660254037844383700, 0.0000000000000000000 ) ) ;
#147 = LINE ( 'NONE', #116, #35 ) ;
#148 = CARTESIAN_POINT ( 'NONE',  ( 0.0000000000000000000, 0.0000000000000000000, 0.0000000000000000000 ) ) ;
#149 = MANIFOLD_SOLID_BREP ( 'Boss-Extrude1', #254 ) ;
#150 = CARTESIAN_POINT ( 'NONE',  ( 0.1111399268190029600, -0.1925000000000000900, 0.03125000000000000000 ) ) ;
#151 = CARTESIAN_POINT ( 'NONE',  ( -0.2222798536380059800, -6.829619984160656800E-017, 0.03125000000000000000 ) ) ;
#152 = PLANE ( 'NONE',  #168 ) ;
#153 = FACE_OUTER_BOUND ( 'NONE', #123, .T. ) ;
#154 = CARTESIAN_POINT ( 'NONE',  ( -0.1111399268190030300, 0.1925000000000000600, 0.03125000000000000000 ) ) ;
#155 = DIRECTION ( 'NONE',  ( -0.4999999999999996100, -0.8660254037844388200, 0.0000000000000000000 ) ) ;
#156 = ORIENTED_EDGE ( 'NONE', *, *, #340, .F. ) ;
#157 = DIRECTION ( 'NONE',  ( -0.0000000000000000000, -0.0000000000000000000, -1.000000000000000000 ) ) ;
#158 = LINE ( 'NONE', #177, #211 ) ;
#159 = LINE ( 'NONE', #230, #333 ) ;
#160 = ORIENTED_EDGE ( 'NONE', *, *, #331, .F. ) ;
#161 = ORIENTED_EDGE ( 'NONE', *, *, #53, .T. ) ;
#162 = EDGE_CURVE ( 'NONE', #61, #315, #314, .T. ) ;
#163 = FACE_OUTER_BOUND ( 'NONE', #22, .T. ) ;
#164 = CARTESIAN_POINT ( 'NONE',  ( 0.0000000000000000000, 0.0000000000000000000, 0.03125000000000000000 ) ) ;
#165 = DIRECTION ( 'NONE',  ( 1.000000000000000000, 0.0000000000000000000, 0.0000000000000000000 ) ) ;
#166 = COLOUR_RGB ( '',0.4941176470588235500, 0.4941176470588235500, 0.4941176470588235500 ) ;
#167 = ORIENTED_EDGE ( 'NONE', *, *, #68, .F. ) ;
#168 = AXIS2_PLACEMENT_3D ( 'NONE', #201, #44, #240 ) ;
#169 = VERTEX_POINT ( 'NONE', #79 ) ;
#170 =( NAMED_UNIT ( * ) SI_UNIT ( $, .STERADIAN. ) SOLID_ANGLE_UNIT ( ) );
#171 = PLANE ( 'NONE',  #252 ) ;
#172 = DIRECTION ( 'NONE',  ( 0.0000000000000000000, 0.0000000000000000000, 1.000000000000000000 ) ) ;
#173 = LINE ( 'NONE', #341, #300 ) ;
#174 = UNCERTAINTY_MEASURE_WITH_UNIT (LENGTH_MEASURE( 1.000000000000000100E-005 ), #175, 'distance_accuracy_value', 'NONE');
#175 =( CONVERSION_BASED_UNIT ( 'INCH', #222 ) LENGTH_UNIT ( ) NAMED_UNIT ( #210 ) );
#176 = DIRECTION ( 'NONE',  ( 0.5000000000000000000, -0.8660254037844386000, 0.0000000000000000000 ) ) ;
#177 = CARTESIAN_POINT ( 'NONE',  ( 0.2222798536380059300, 6.082630298393085800E-017, 0.03125000000000000000 ) ) ;
#178 = ORIENTED_EDGE ( 'NONE', *, *, #348, .F. ) ;
#179 = ORIENTED_EDGE ( 'NONE', *, *, #342, .F. ) ;
#180 = AXIS2_PLACEMENT_3D ( 'NONE', #135, #50, #247 ) ;
#181 = FACE_BOUND ( 'NONE', #15, .T. ) ;
#182 = ORIENTED_EDGE ( 'NONE', *, *, #53, .F. ) ;
#183 = ORIENTED_EDGE ( 'NONE', *, *, #92, .F. ) ;
#184 = DIRECTION ( 'NONE',  ( 1.000000000000000000, 0.0000000000000000000, 0.0000000000000000000 ) ) ;
#185 = CARTESIAN_POINT ( 'NONE',  ( -0.2222798536380059800, -6.829619984160656800E-017, 0.03125000000000000000 ) ) ;
#186 = ORIENTED_EDGE ( 'NONE', *, *, #112, .F. ) ;
#187 = LENGTH_MEASURE_WITH_UNIT ( LENGTH_MEASURE( 0.02539999999999999900 ), #121 );
#188 = LINE ( 'NONE', #17, #269 ) ;
#189 = APPLICATION_PROTOCOL_DEFINITION ( 'draft international standard', 'automotive_design', 1998, #227 ) ;
#190 = DIRECTION ( 'NONE',  ( 0.4999999999999997200, 0.8660254037844388200, 0.0000000000000000000 ) ) ;
#191 = DIRECTION ( 'NONE',  ( 1.000000000000000000, 0.0000000000000000000, 0.0000000000000000000 ) ) ;
#192 = PLANE ( 'NONE',  #235 ) ;
#193 = ORIENTED_EDGE ( 'NONE', *, *, #298, .F. ) ;
#194 = ORIENTED_EDGE ( 'NONE', *, *, #255, .F. ) ;
#195 = DIRECTION ( 'NONE',  ( -0.0000000000000000000, -0.0000000000000000000, -1.000000000000000000 ) ) ;
#196 = CIRCLE ( 'NONE', #272, 0.3125000000000000000 ) ;
#197 = DIRECTION ( 'NONE',  ( -0.0000000000000000000, -0.0000000000000000000, -1.000000000000000000 ) ) ;
#198 = ORIENTED_EDGE ( 'NONE', *, *, #342, .T. ) ;
#199 = ORIENTED_EDGE ( 'NONE', *, *, #331, .T. ) ;
#200 = ORIENTED_EDGE ( 'NONE', *, *, #56, .T. ) ;
#201 = CARTESIAN_POINT ( 'NONE',  ( 0.0000000000000000000, 0.0000000000000000000, -0.03125000000000000000 ) ) ;
#202 = CARTESIAN_POINT ( 'NONE',  ( 0.0000000000000000000, 0.0000000000000000000, 0.03125000000000000000 ) ) ;
#203 = FACE_BOUND ( 'NONE', #351, .T. ) ;
#204 = VERTEX_POINT ( 'NONE', #270 ) ;
#205 = DIMENSIONAL_EXPONENTS ( 1.000000000000000000, 0.0000000000000000000, 0.0000000000000000000, 0.0000000000000000000, 0.0000000000000000000, 0.0000000000000000000, 0.0000000000000000000 ) ;
#206 = ORIENTED_EDGE ( 'NONE', *, *, #6, .F. ) ;
#207 = PLANE ( 'NONE',  #180 ) ;
#208 = VECTOR ( 'NONE', #89, 39.37007874015748900 ) ;
#209 = FACE_OUTER_BOUND ( 'NONE', #316, .T. ) ;
#210 = DIMENSIONAL_EXPONENTS ( 1.000000000000000000, 0.0000000000000000000, 0.0000000000000000000, 0.0000000000000000000, 0.0000000000000000000, 0.0000000000000000000, 0.0000000000000000000 ) ;
#211 = VECTOR ( 'NONE', #20, 39.37007874015748100 ) ;
#212 = EDGE_LOOP ( 'NONE', ( #236, #244 ) ) ;
#213 = VECTOR ( 'NONE', #133, 39.37007874015748100 ) ;
#214 = ORIENTED_EDGE ( 'NONE', *, *, #255, .T. ) ;
#215 =( GEOMETRIC_REPRESENTATION_CONTEXT ( 3 ) GLOBAL_UNCERTAINTY_ASSIGNED_CONTEXT ( ( #54 ) ) GLOBAL_UNIT_ASSIGNED_CONTEXT ( ( #308, #96, #345 ) ) REPRESENTATION_CONTEXT ( 'NONE', 'WORKASPACE' ) );
#216 = CARTESIAN_POINT ( 'NONE',  ( 0.3125000000000000000, 3.827021247335478900E-017, 0.03125000000000000000 ) ) ;
#217 = ORIENTED_EDGE ( 'NONE', *, *, #19, .F. ) ;
#218 = DIRECTION ( 'NONE',  ( 1.000000000000000000, 1.536266079084936400E-016, 0.0000000000000000000 ) ) ;
#219 = CARTESIAN_POINT ( 'NONE',  ( 0.2222798536380059300, 6.082630298393085800E-017, 0.03125000000000000000 ) ) ;
#220 = MECHANICAL_DESIGN_GEOMETRIC_PRESENTATION_REPRESENTATION (  '', ( #225 ), #215 ) ;
#221 = PRESENTATION_LAYER_ASSIGNMENT (  '', '', ( #225 ) ) ;
#222 = LENGTH_MEASURE_WITH_UNIT ( LENGTH_MEASURE( 0.02539999999999999900 ), #336 );
#223 = LINE ( 'NONE', #322, #213 ) ;
#224 = VECTOR ( 'NONE', #157, 39.37007874015748100 ) ;
#225 = STYLED_ITEM ( 'NONE', ( #104 ), #149 ) ;
#226 = ORIENTED_EDGE ( 'NONE', *, *, #350, .T. ) ;
#227 = APPLICATION_CONTEXT ( 'automotive_design' ) ;
#228 = CARTESIAN_POINT ( 'NONE',  ( 0.0000000000000000000, 0.0000000000000000000, -0.03125000000000000000 ) ) ;
#229 = ORIENTED_EDGE ( 'NONE', *, *, #112, .T. ) ;
#230 = CARTESIAN_POINT ( 'NONE',  ( 0.1111399268190028500, 0.1925000000000000900, 0.03125000000000000000 ) ) ;
#231 = APPLICATION_CONTEXT ( 'automotive_design' ) ;
#232 = DIRECTION ( 'NONE',  ( 1.000000000000000000, 0.0000000000000000000, -0.0000000000000000000 ) ) ;
#233 = DIRECTION ( 'NONE',  ( -1.000000000000000000, 0.0000000000000000000, 0.0000000000000000000 ) ) ;
#234 = LINE ( 'NONE', #292, #224 ) ;
#235 = AXIS2_PLACEMENT_3D ( 'NONE', #284, #122, #38 ) ;
#236 = ORIENTED_EDGE ( 'NONE', *, *, #323, .T. ) ;
#237 = VERTEX_POINT ( 'NONE', #245 ) ;
#238 = EDGE_CURVE ( 'NONE', #139, #131, #263, .T. ) ;
#239 = CIRCLE ( 'NONE', #243, 0.3125000000000000000 ) ;
#240 = DIRECTION ( 'NONE',  ( 1.000000000000000000, 0.0000000000000000000, -0.0000000000000000000 ) ) ;
#241 = CARTESIAN_POINT ( 'NONE',  ( 0.1111399268190029600, -0.1925000000000000900, -0.03125000000000000000 ) ) ;
#242 = CARTESIAN_POINT ( 'NONE',  ( 0.1111399268190029600, -0.1925000000000000900, -0.03125000000000000000 ) ) ;
#243 = AXIS2_PLACEMENT_3D ( 'NONE', #141, #330, #165 ) ;
#244 = ORIENTED_EDGE ( 'NONE', *, *, #92, .T. ) ;
#245 = CARTESIAN_POINT ( 'NONE',  ( -0.1111399268190029600, -0.1925000000000001400, 0.03125000000000000000 ) ) ;
#246 = EDGE_CURVE ( 'NONE', #237, #296, #234, .T. ) ;
#247 = DIRECTION ( 'NONE',  ( 0.5000000000000004400, -0.8660254037844383700, 0.0000000000000000000 ) ) ;
#248 = FACE_OUTER_BOUND ( 'NONE', #274, .T. ) ;
#249 = CIRCLE ( 'NONE', #115, 0.3125000000000000000 ) ;
#250 = FACE_OUTER_BOUND ( 'NONE', #212, .T. ) ;
#251 = ADVANCED_FACE ( 'NONE', ( #248 ), #207, .T. ) ;
#252 = AXIS2_PLACEMENT_3D ( 'NONE', #8, #41, #232 ) ;
#253 = VECTOR ( 'NONE', #324, 39.37007874015748100 ) ;
#254 = CLOSED_SHELL ( 'NONE', ( #26, #80, #295, #24, #297, #82, #251, #55, #48, #57 ) ) ;
#255 = EDGE_CURVE ( 'NONE', #315, #296, #173, .T. ) ;
#256 = FILL_AREA_STYLE ('',( #36 ) ) ;
#257 = ORIENTED_EDGE ( 'NONE', *, *, #56, .F. ) ;
#258 = ORIENTED_EDGE ( 'NONE', *, *, #162, .T. ) ;
#259 = FILL_AREA_STYLE ('',( #70 ) ) ;
#260 = SHAPE_DEFINITION_REPRESENTATION ( #127, #302 ) ;
#261 = LINE ( 'NONE', #65, #137 ) ;
#262 = AXIS2_PLACEMENT_3D ( 'NONE', #151, #281, #119 ) ;
#263 = LINE ( 'NONE', #49, #253 ) ;
#264 = CARTESIAN_POINT ( 'NONE',  ( -0.1111399268190029600, -0.1925000000000001400, -0.03125000000000000000 ) ) ;
#265 = DIRECTION ( 'NONE',  ( -1.000000000000000000, 0.0000000000000000000, 0.0000000000000000000 ) ) ;
#266 = FACE_OUTER_BOUND ( 'NONE', #84, .T. ) ;
#267 = PLANE ( 'NONE',  #126 ) ;
#268 = CARTESIAN_POINT ( 'NONE',  ( -0.1111399268190030300, 0.1925000000000000600, -0.03125000000000000000 ) ) ;
#269 = VECTOR ( 'NONE', #197, 39.37007874015748100 ) ;
#270 = CARTESIAN_POINT ( 'NONE',  ( 0.1111399268190028500, 0.1925000000000000900, 0.03125000000000000000 ) ) ;
#271 = FACE_OUTER_BOUND ( 'NONE', #1, .T. ) ;
#272 = AXIS2_PLACEMENT_3D ( 'NONE', #228, #172, #12 ) ;
#273 = PRODUCT_DEFINITION_CONTEXT ( 'detailed design', #231, 'design' ) ;
#274 = EDGE_LOOP ( 'NONE', ( #186, #193, #198, #161 ) ) ;
#275 = CYLINDRICAL_SURFACE ( 'NONE', #288, 0.3125000000000000000 ) ;
#276 = AXIS2_PLACEMENT_3D ( 'NONE', #286, #130, #319 ) ;
#277 = CARTESIAN_POINT ( 'NONE',  ( 0.1111399268190028500, 0.1925000000000000900, 0.03125000000000000000 ) ) ;
#278 = SURFACE_STYLE_USAGE ( .BOTH. , #91 ) ;
#279 = PRESENTATION_STYLE_ASSIGNMENT (( #283 ) ) ;
#280 = LINE ( 'NONE', #150, #299 ) ;
#281 = DIRECTION ( 'NONE',  ( 0.8660254037844387100, 0.5000000000000001100, -0.0000000000000000000 ) ) ;
#282 = AXIS2_PLACEMENT_3D ( 'NONE', #144, #9, #190 ) ;
#283 = SURFACE_STYLE_USAGE ( .BOTH. , #95 ) ;
#284 = CARTESIAN_POINT ( 'NONE',  ( 0.1111399268190029600, -0.1925000000000000900, 0.03125000000000000000 ) ) ;
#285 = DIRECTION ( 'NONE',  ( 0.0000000000000000000, 0.0000000000000000000, 1.000000000000000000 ) ) ;
#286 = CARTESIAN_POINT ( 'NONE',  ( 0.1111399268190028500, 0.1925000000000000900, 0.03125000000000000000 ) ) ;
#287 = ORIENTED_EDGE ( 'NONE', *, *, #6, .T. ) ;
#288 = AXIS2_PLACEMENT_3D ( 'NONE', #101, #129, #233 ) ;
#289 = DIRECTION ( 'NONE',  ( -1.536266079084936400E-016, 1.000000000000000000, 0.0000000000000000000 ) ) ;
#290 = CYLINDRICAL_SURFACE ( 'NONE', #293, 0.3125000000000000000 ) ;
#291 = ORIENTED_EDGE ( 'NONE', *, *, #318, .T. ) ;
#292 = CARTESIAN_POINT ( 'NONE',  ( -0.1111399268190029600, -0.1925000000000001400, 0.03125000000000000000 ) ) ;
#293 = AXIS2_PLACEMENT_3D ( 'NONE', #202, #73, #265 ) ;
#294 = LINE ( 'NONE', #125, #69 ) ;
#295 = ADVANCED_FACE ( 'NONE', ( #163, #181 ), #152, .F. ) ;
#296 = VERTEX_POINT ( 'NONE', #81 ) ;
#297 = ADVANCED_FACE ( 'NONE', ( #107 ), #267, .T. ) ;
#298 = EDGE_CURVE ( 'NONE', #131, #169, #158, .T. ) ;
#299 = VECTOR ( 'NONE', #317, 39.37007874015748100 ) ;
#300 = VECTOR ( 'NONE', #176, 39.37007874015748900 ) ;
#301 = ORIENTED_EDGE ( 'NONE', *, *, #162, .F. ) ;
#302 = ADVANCED_BREP_SHAPE_REPRESENTATION ( '217-3258-STEP', ( #149, #67 ), #108 ) ;
#303 = VECTOR ( 'NONE', #88, 39.37007874015748100 ) ;
#304 = CARTESIAN_POINT ( 'NONE',  ( -0.1111399268190030300, 0.1925000000000000600, -0.03125000000000000000 ) ) ;
#305 = CARTESIAN_POINT ( 'NONE',  ( 0.1111399268190029600, -0.1925000000000000900, 0.03125000000000000000 ) ) ;
#306 = DIRECTION ( 'NONE',  ( -1.000000000000000000, -1.536266079084936900E-016, 0.0000000000000000000 ) ) ;
#307 = SURFACE_STYLE_FILL_AREA ( #259 ) ;
#308 =( CONVERSION_BASED_UNIT ( 'INCH', #47 ) LENGTH_UNIT ( ) NAMED_UNIT ( #205 ) );
#309 = VECTOR ( 'NONE', #155, 39.37007874015748900 ) ;
#310 = CARTESIAN_POINT ( 'NONE',  ( 0.3125000000000000000, 3.827021247335478900E-017, -0.03125000000000000000 ) ) ;
#311 = CARTESIAN_POINT ( 'NONE',  ( 0.1111399268190028500, 0.1925000000000000900, -0.03125000000000000000 ) ) ;
#312 =( CONVERSION_BASED_UNIT ( 'INCH', #187 ) LENGTH_UNIT ( ) NAMED_UNIT ( #109 ) );
#313 = EDGE_CURVE ( 'NONE', #94, #78, #113, .T. ) ;
#314 = LINE ( 'NONE', #185, #303 ) ;
#315 = VERTEX_POINT ( 'NONE', #343 ) ;
#316 = EDGE_LOOP ( 'NONE', ( #194, #301, #124, #52 ) ) ;
#317 = DIRECTION ( 'NONE',  ( -0.0000000000000000000, -0.0000000000000000000, -1.000000000000000000 ) ) ;
#318 = EDGE_CURVE ( 'NONE', #23, #169, #98, .T. ) ;
#319 = DIRECTION ( 'NONE',  ( 1.000000000000000000, 1.536266079084936900E-016, 0.0000000000000000000 ) ) ;
#320 = LINE ( 'NONE', #268, #309 ) ;
#321 = CARTESIAN_POINT ( 'NONE',  ( 0.3125000000000000000, 3.827021247335478900E-017, 0.03125000000000000000 ) ) ;
#322 = CARTESIAN_POINT ( 'NONE',  ( 0.1111399268190028500, 0.1925000000000000900, -0.03125000000000000000 ) ) ;
#323 = EDGE_CURVE ( 'NONE', #59, #94, #74, .T. ) ;
#324 = DIRECTION ( 'NONE',  ( 0.4999999999999996100, 0.8660254037844388200, 0.0000000000000000000 ) ) ;
#325 = VERTEX_POINT ( 'NONE', #304 ) ;
#326 = FACE_OUTER_BOUND ( 'NONE', #16, .T. ) ;
#327 = EDGE_CURVE ( 'NONE', #237, #139, #21, .T. ) ;
#328 = CARTESIAN_POINT ( 'NONE',  ( -0.2222798536380059800, -6.829619984160656800E-017, 0.03125000000000000000 ) ) ;
#329 = EDGE_CURVE ( 'NONE', #61, #237, #337, .T. ) ;
#330 = DIRECTION ( 'NONE',  ( 0.0000000000000000000, 0.0000000000000000000, 1.000000000000000000 ) ) ;
#331 = EDGE_CURVE ( 'NONE', #204, #344, #140, .T. ) ;
#332 = ORIENTED_EDGE ( 'NONE', *, *, #347, .T. ) ;
#333 = VECTOR ( 'NONE', #39, 39.37007874015748100 ) ;
#334 = PLANE ( 'NONE',  #282 ) ;
#335 =( NAMED_UNIT ( * ) SI_UNIT ( $, .STERADIAN. ) SOLID_ANGLE_UNIT ( ) );
#336 =( LENGTH_UNIT ( ) NAMED_UNIT ( * ) SI_UNIT ( $, .METRE. ) );
#337 = LINE ( 'NONE', #328, #208 ) ;
#338 = ORIENTED_EDGE ( 'NONE', *, *, #350, .F. ) ;
#339 = CARTESIAN_POINT ( 'NONE',  ( -0.3125000000000000000, 0.0000000000000000000, 0.03125000000000000000 ) ) ;
#340 = EDGE_CURVE ( 'NONE', #344, #61, #25, .T. ) ;
#341 = CARTESIAN_POINT ( 'NONE',  ( -0.2222798536380059800, -6.829619984160656800E-017, -0.03125000000000000000 ) ) ;
#342 = EDGE_CURVE ( 'NONE', #131, #204, #294, .T. ) ;
#343 = CARTESIAN_POINT ( 'NONE',  ( -0.2222798536380059800, -6.829619984160656800E-017, -0.03125000000000000000 ) ) ;
#344 = VERTEX_POINT ( 'NONE', #154 ) ;
#345 =( NAMED_UNIT ( * ) SI_UNIT ( $, .STERADIAN. ) SOLID_ANGLE_UNIT ( ) );
#346 = ORIENTED_EDGE ( 'NONE', *, *, #246, .F. ) ;
#347 = EDGE_CURVE ( 'NONE', #59, #85, #147, .T. ) ;
#348 = EDGE_CURVE ( 'NONE', #85, #78, #249, .T. ) ;
#349 = ORIENTED_EDGE ( 'NONE', *, *, #327, .T. ) ;
#350 = EDGE_CURVE ( 'NONE', #296, #23, #103, .T. ) ;
#351 = EDGE_LOOP ( 'NONE', ( #93, #62, #27, #156, #160, #179 ) ) ;
ENDSEC;
END-ISO-10303-21;
