ISO-10303-21;
HEADER;
FILE_DESCRIPTION (( 'STEP AP214' ),
    '1' );
FILE_NAME ('217-3257-STEP.STEP',
    '2013-12-06T21:07:06',
    ( '' ),
    ( '' ),
    'SwSTEP 2.0',
    'SolidWorks 2013',
    '' );
FILE_SCHEMA (( 'AUTOMOTIVE_DESIGN' ));
ENDSEC;

DATA;
#1 =( NAMED_UNIT ( * ) SI_UNIT ( $, .STERADIAN. ) SOLID_ANGLE_UNIT ( ) );
#2 = VECTOR ( 'NONE', #174, 39.37007874015748900 ) ;
#3 = CARTESIAN_POINT ( 'NONE',  ( -0.2944486372867092200, 2.527242374660742700E-017, -0.03125000000000000000 ) ) ;
#4 = CARTESIAN_POINT ( 'NONE',  ( 0.1472243186433544700, 0.2550000000000001700, 0.03125000000000000000 ) ) ;
#5 = DIRECTION ( 'NONE',  ( -0.0000000000000000000, -0.0000000000000000000, -1.000000000000000000 ) ) ;
#6 = ORIENTED_EDGE ( 'NONE', *, *, #333, .T. ) ;
#7 = CARTESIAN_POINT ( 'NONE',  ( 0.0000000000000000000, 0.0000000000000000000, 0.03125000000000000000 ) ) ;
#8 = CARTESIAN_POINT ( 'NONE',  ( 0.0000000000000000000, 0.0000000000000000000, -0.03125000000000000000 ) ) ;
#9 = CARTESIAN_POINT ( 'NONE',  ( 0.2944486372867092200, 1.028089255413782600E-017, 0.03125000000000000000 ) ) ;
#10 = CIRCLE ( 'NONE', #271, 0.3838582677165354200 ) ;
#11 = CARTESIAN_POINT ( 'NONE',  ( 0.0000000000000000000, 0.0000000000000000000, 0.0000000000000000000 ) ) ;
#12 = CIRCLE ( 'NONE', #52, 0.3838582677165354200 ) ;
#13 = EDGE_CURVE ( 'NONE', #286, #236, #327, .T. ) ;
#14 = DIRECTION ( 'NONE',  ( 0.4999999999999998900, 0.8660254037844386000, 0.0000000000000000000 ) ) ;
#15 = LINE ( 'NONE', #3, #313 ) ;
#16 = FACE_OUTER_BOUND ( 'NONE', #330, .T. ) ;
#17 =( NAMED_UNIT ( * ) SI_UNIT ( $, .STERADIAN. ) SOLID_ANGLE_UNIT ( ) );
#18 = VECTOR ( 'NONE', #205, 39.37007874015748100 ) ;
#19 = ADVANCED_FACE ( 'NONE', ( #279 ), #152, .T. ) ;
#20 = PRODUCT_DEFINITION_SHAPE ( 'NONE', 'NONE',  #197 ) ;
#21 = FACE_OUTER_BOUND ( 'NONE', #291, .T. ) ;
#22 = EDGE_CURVE ( 'NONE', #140, #299, #319, .T. ) ;
#23 = VERTEX_POINT ( 'NONE', #9 ) ;
#24 = EDGE_CURVE ( 'NONE', #318, #334, #273, .T. ) ;
#25 = CYLINDRICAL_SURFACE ( 'NONE', #77, 0.3838582677165354200 ) ;
#26 = CARTESIAN_POINT ( 'NONE',  ( 0.0000000000000000000, 0.0000000000000000000, -0.03125000000000000000 ) ) ;
#27 = EDGE_CURVE ( 'NONE', #248, #65, #343, .T. ) ;
#28 = FACE_OUTER_BOUND ( 'NONE', #219, .T. ) ;
#29 = MANIFOLD_SOLID_BREP ( 'Boss-Extrude1', #144 ) ;
#30 = CARTESIAN_POINT ( 'NONE',  ( -0.1472243186433546400, 0.2550000000000000600, -0.03125000000000000000 ) ) ;
#31 = CARTESIAN_POINT ( 'NONE',  ( 0.2944486372867092200, 1.028089255413782600E-017, -0.03125000000000000000 ) ) ;
#32 = VECTOR ( 'NONE', #75, 39.37007874015748100 ) ;
#33 = DIRECTION ( 'NONE',  ( 1.000000000000000000, 0.0000000000000000000, 0.0000000000000000000 ) ) ;
#34 = DIRECTION ( 'NONE',  ( 1.000000000000000000, 0.0000000000000000000, 0.0000000000000000000 ) ) ;
#35 = DIRECTION ( 'NONE',  ( -0.0000000000000000000, -0.0000000000000000000, -1.000000000000000000 ) ) ;
#36 =( CONVERSION_BASED_UNIT ( 'INCH', #196 ) LENGTH_UNIT ( ) NAMED_UNIT ( #96 ) );
#37 = ADVANCED_BREP_SHAPE_REPRESENTATION ( '217-3257-STEP', ( #29, #199 ), #263 ) ;
#38 = VECTOR ( 'NONE', #107, 39.37007874015748100 ) ;
#39 = PLANE ( 'NONE',  #156 ) ;
#40 = ADVANCED_FACE ( 'NONE', ( #245 ), #57, .T. ) ;
#41 = DIRECTION ( 'NONE',  ( 0.0000000000000000000, 0.0000000000000000000, 1.000000000000000000 ) ) ;
#42 = DIMENSIONAL_EXPONENTS ( 1.000000000000000000, 0.0000000000000000000, 0.0000000000000000000, 0.0000000000000000000, 0.0000000000000000000, 0.0000000000000000000, 0.0000000000000000000 ) ;
#43 = DIRECTION ( 'NONE',  ( -0.8660254037844387100, 0.5000000000000001100, 0.0000000000000000000 ) ) ;
#44 = LINE ( 'NONE', #328, #38 ) ;
#45 = EDGE_CURVE ( 'NONE', #141, #348, #115, .T. ) ;
#46 = DIRECTION ( 'NONE',  ( 1.000000000000000000, 0.0000000000000000000, 0.0000000000000000000 ) ) ;
#47 = EDGE_CURVE ( 'NONE', #318, #60, #252, .T. ) ;
#48 = CARTESIAN_POINT ( 'NONE',  ( -0.1472243186433545600, -0.2550000000000000000, 0.03125000000000000000 ) ) ;
#49 = VECTOR ( 'NONE', #56, 39.37007874015748900 ) ;
#50 = VECTOR ( 'NONE', #151, 39.37007874015748900 ) ;
#51 = DIRECTION ( 'NONE',  ( -0.0000000000000000000, -0.0000000000000000000, -1.000000000000000000 ) ) ;
#52 = AXIS2_PLACEMENT_3D ( 'NONE', #133, #338, #160 ) ;
#53 = CARTESIAN_POINT ( 'NONE',  ( 0.0000000000000000000, 0.0000000000000000000, -0.03125000000000000000 ) ) ;
#54 = LINE ( 'NONE', #149, #32 ) ;
#55 = EDGE_CURVE ( 'NONE', #201, #232, #120, .T. ) ;
#56 = DIRECTION ( 'NONE',  ( -0.5000000000000001100, 0.8660254037844384900, 0.0000000000000000000 ) ) ;
#57 = PLANE ( 'NONE',  #276 ) ;
#58 = EDGE_CURVE ( 'NONE', #23, #65, #112, .T. ) ;
#59 = VECTOR ( 'NONE', #265, 39.37007874015748100 ) ;
#60 = VERTEX_POINT ( 'NONE', #301 ) ;
#61 = AXIS2_PLACEMENT_3D ( 'NONE', #125, #306, #193 ) ;
#62 = DIRECTION ( 'NONE',  ( 0.0000000000000000000, 0.0000000000000000000, 1.000000000000000000 ) ) ;
#63 = ORIENTED_EDGE ( 'NONE', *, *, #22, .F. ) ;
#64 = ORIENTED_EDGE ( 'NONE', *, *, #261, .T. ) ;
#65 = VERTEX_POINT ( 'NONE', #31 ) ;
#66 = EDGE_CURVE ( 'NONE', #60, #248, #44, .T. ) ;
#67 = PRODUCT_CONTEXT ( 'NONE', #246, 'mechanical' ) ;
#68 = LINE ( 'NONE', #298, #50 ) ;
#69 = CARTESIAN_POINT ( 'NONE',  ( -0.1472243186433545600, -0.2550000000000000000, 0.03125000000000000000 ) ) ;
#70 = ORIENTED_EDGE ( 'NONE', *, *, #307, .F. ) ;
#71 = PLANE ( 'NONE',  #104 ) ;
#72 = VECTOR ( 'NONE', #105, 39.37007874015748100 ) ;
#73 = EDGE_LOOP ( 'NONE', ( #285, #341, #254, #161 ) ) ;
#74 = CARTESIAN_POINT ( 'NONE',  ( -0.3838582677165354200, 0.0000000000000000000, -0.03125000000000000000 ) ) ;
#75 = DIRECTION ( 'NONE',  ( -1.000000000000000000, -3.479190826162944300E-016, 0.0000000000000000000 ) ) ;
#76 = UNCERTAINTY_MEASURE_WITH_UNIT (LENGTH_MEASURE( 1.000000000000000100E-005 ), #36, 'distance_accuracy_value', 'NONE');
#77 = AXIS2_PLACEMENT_3D ( 'NONE', #184, #113, #342 ) ;
#78 = CARTESIAN_POINT ( 'NONE',  ( -0.3838582677165354200, 0.0000000000000000000, 0.03125000000000000000 ) ) ;
#79 = VECTOR ( 'NONE', #51, 39.37007874015748100 ) ;
#80 = CIRCLE ( 'NONE', #91, 0.3838582677165354200 ) ;
#81 = PRODUCT ( '217-3257-STEP', '217-3257-STEP', '', ( #67 ) ) ;
#82 = VECTOR ( 'NONE', #124, 39.37007874015748100 ) ;
#83 = LINE ( 'NONE', #272, #18 ) ;
#84 = FACE_OUTER_BOUND ( 'NONE', #221, .T. ) ;
#85 = CARTESIAN_POINT ( 'NONE',  ( -0.1472243186433546400, 0.2550000000000000600, -0.03125000000000000000 ) ) ;
#86 = CARTESIAN_POINT ( 'NONE',  ( 0.1472243186433546100, -0.2550000000000000000, -0.03125000000000000000 ) ) ;
#87 = EDGE_CURVE ( 'NONE', #141, #140, #68, .T. ) ;
#88 = ORIENTED_EDGE ( 'NONE', *, *, #47, .T. ) ;
#89 = DIMENSIONAL_EXPONENTS ( 1.000000000000000000, 0.0000000000000000000, 0.0000000000000000000, 0.0000000000000000000, 0.0000000000000000000, 0.0000000000000000000, 0.0000000000000000000 ) ;
#90 = LINE ( 'NONE', #257, #2 ) ;
#91 = AXIS2_PLACEMENT_3D ( 'NONE', #8, #178, #34 ) ;
#92 = ORIENTED_EDGE ( 'NONE', *, *, #55, .T. ) ;
#93 = VERTEX_POINT ( 'NONE', #175 ) ;
#94 = FILL_AREA_STYLE_COLOUR ( '', #130 ) ;
#95 = APPLICATION_PROTOCOL_DEFINITION ( 'draft international standard', 'automotive_design', 1998, #247 ) ;
#96 = DIMENSIONAL_EXPONENTS ( 1.000000000000000000, 0.0000000000000000000, 0.0000000000000000000, 0.0000000000000000000, 0.0000000000000000000, 0.0000000000000000000, 0.0000000000000000000 ) ;
#97 = CARTESIAN_POINT ( 'NONE',  ( 0.2944486372867092200, 1.028089255413782600E-017, 0.03125000000000000000 ) ) ;
#98 = SURFACE_SIDE_STYLE ('',( #242 ) ) ;
#99 = FACE_BOUND ( 'NONE', #241, .T. ) ;
#100 = ORIENTED_EDGE ( 'NONE', *, *, #87, .F. ) ;
#101 = ORIENTED_EDGE ( 'NONE', *, *, #66, .F. ) ;
#102 = DIRECTION ( 'NONE',  ( -0.8660254037844386000, -0.5000000000000002200, 0.0000000000000000000 ) ) ;
#103 = CARTESIAN_POINT ( 'NONE',  ( -0.2944486372867092200, 2.527242374660742700E-017, -0.03125000000000000000 ) ) ;
#104 = AXIS2_PLACEMENT_3D ( 'NONE', #255, #102, #289 ) ;
#105 = DIRECTION ( 'NONE',  ( -0.0000000000000000000, -0.0000000000000000000, -1.000000000000000000 ) ) ;
#106 = ORIENTED_EDGE ( 'NONE', *, *, #337, .T. ) ;
#107 = DIRECTION ( 'NONE',  ( 1.000000000000000000, 0.0000000000000000000, 0.0000000000000000000 ) ) ;
#108 = VECTOR ( 'NONE', #202, 39.37007874015748100 ) ;
#109 = CARTESIAN_POINT ( 'NONE',  ( 0.0000000000000000000, 0.0000000000000000000, 0.03125000000000000000 ) ) ;
#110 = AXIS2_PLACEMENT_3D ( 'NONE', #26, #194, #46 ) ;
#111 = DIRECTION ( 'NONE',  ( 1.000000000000000000, 0.0000000000000000000, -0.0000000000000000000 ) ) ;
#112 = LINE ( 'NONE', #97, #59 ) ;
#113 = DIRECTION ( 'NONE',  ( -0.0000000000000000000, -0.0000000000000000000, -1.000000000000000000 ) ) ;
#114 = ADVANCED_FACE ( 'NONE', ( #21 ), #326, .T. ) ;
#115 = LINE ( 'NONE', #283, #127 ) ;
#116 = SURFACE_SIDE_STYLE ('',( #293 ) ) ;
#117 = EDGE_CURVE ( 'NONE', #201, #93, #10, .T. ) ;
#118 = ORIENTED_EDGE ( 'NONE', *, *, #217, .T. ) ;
#119 = DIRECTION ( 'NONE',  ( -0.0000000000000000000, -0.0000000000000000000, -1.000000000000000000 ) ) ;
#120 = LINE ( 'NONE', #251, #79 ) ;
#121 =( LENGTH_UNIT ( ) NAMED_UNIT ( * ) SI_UNIT ( $, .METRE. ) );
#122 = CARTESIAN_POINT ( 'NONE',  ( 0.3838582677165354200, 4.700907988853029100E-017, -0.03125000000000000000 ) ) ;
#123 = LINE ( 'NONE', #30, #139 ) ;
#124 = DIRECTION ( 'NONE',  ( -0.0000000000000000000, -0.0000000000000000000, -1.000000000000000000 ) ) ;
#125 = CARTESIAN_POINT ( 'NONE',  ( -0.1472243186433545600, -0.2550000000000000000, 0.03125000000000000000 ) ) ;
#126 = ORIENTED_EDGE ( 'NONE', *, *, #296, .T. ) ;
#127 = VECTOR ( 'NONE', #119, 39.37007874015748100 ) ;
#128 = DIRECTION ( 'NONE',  ( 0.0000000000000000000, 0.0000000000000000000, 1.000000000000000000 ) ) ;
#129 = LINE ( 'NONE', #78, #72 ) ;
#130 = COLOUR_RGB ( '',0.4941176470588235500, 0.4941176470588235500, 0.4941176470588235500 ) ;
#131 = CARTESIAN_POINT ( 'NONE',  ( -0.1472243186433546400, 0.2550000000000000600, 0.03125000000000000000 ) ) ;
#132 = DIRECTION ( 'NONE',  ( 0.8660254037844386000, 0.5000000000000001100, -0.0000000000000000000 ) ) ;
#133 = CARTESIAN_POINT ( 'NONE',  ( 0.0000000000000000000, 0.0000000000000000000, 0.03125000000000000000 ) ) ;
#134 = ORIENTED_EDGE ( 'NONE', *, *, #344, .T. ) ;
#135 = ADVANCED_FACE ( 'NONE', ( #84 ), #198, .T. ) ;
#136 = ORIENTED_EDGE ( 'NONE', *, *, #172, .F. ) ;
#137 = CARTESIAN_POINT ( 'NONE',  ( -0.1472243186433546400, 0.2550000000000000600, 0.03125000000000000000 ) ) ;
#138 = ADVANCED_FACE ( 'NONE', ( #28, #99 ), #269, .F. ) ;
#139 = VECTOR ( 'NONE', #182, 39.37007874015748900 ) ;
#140 = VERTEX_POINT ( 'NONE', #237 ) ;
#141 = VERTEX_POINT ( 'NONE', #131 ) ;
#142 = ORIENTED_EDGE ( 'NONE', *, *, #163, .T. ) ;
#143 =( LENGTH_UNIT ( ) NAMED_UNIT ( * ) SI_UNIT ( $, .METRE. ) );
#144 = CLOSED_SHELL ( 'NONE', ( #187, #168, #138, #135, #280, #40, #216, #114, #183, #19 ) ) ;
#145 =( NAMED_UNIT ( * ) PLANE_ANGLE_UNIT ( ) SI_UNIT ( $, .RADIAN. ) );
#146 = FACE_OUTER_BOUND ( 'NONE', #73, .T. ) ;
#147 = ORIENTED_EDGE ( 'NONE', *, *, #333, .F. ) ;
#148 = ORIENTED_EDGE ( 'NONE', *, *, #117, .F. ) ;
#149 = CARTESIAN_POINT ( 'NONE',  ( 0.1472243186433544700, 0.2550000000000001700, -0.03125000000000000000 ) ) ;
#150 = EDGE_CURVE ( 'NONE', #140, #318, #165, .T. ) ;
#151 = DIRECTION ( 'NONE',  ( -0.4999999999999998900, -0.8660254037844386000, 0.0000000000000000000 ) ) ;
#152 = PLANE ( 'NONE',  #323 ) ;
#153 = LINE ( 'NONE', #340, #224 ) ;
#154 = ORIENTED_EDGE ( 'NONE', *, *, #58, .F. ) ;
#155 = ORIENTED_EDGE ( 'NONE', *, *, #337, .F. ) ;
#156 = AXIS2_PLACEMENT_3D ( 'NONE', #137, #164, #14 ) ;
#157 = CARTESIAN_POINT ( 'NONE',  ( -0.2944486372867092200, 2.527242374660742700E-017, 0.03125000000000000000 ) ) ;
#158 = CARTESIAN_POINT ( 'NONE',  ( 0.2944486372867092200, 1.028089255413782600E-017, 0.03125000000000000000 ) ) ;
#159 = DIRECTION ( 'NONE',  ( 0.5000000000000000000, 0.8660254037844386000, 0.0000000000000000000 ) ) ;
#160 = DIRECTION ( 'NONE',  ( 1.000000000000000000, 0.0000000000000000000, 0.0000000000000000000 ) ) ;
#161 = ORIENTED_EDGE ( 'NONE', *, *, #22, .T. ) ;
#162 = CARTESIAN_POINT ( 'NONE',  ( 0.0000000000000000000, 0.0000000000000000000, 0.03125000000000000000 ) ) ;
#163 = EDGE_CURVE ( 'NONE', #348, #299, #123, .T. ) ;
#164 = DIRECTION ( 'NONE',  ( 0.8660254037844387100, -0.4999999999999999400, 0.0000000000000000000 ) ) ;
#165 = LINE ( 'NONE', #157, #188 ) ;
#166 = EDGE_LOOP ( 'NONE', ( #190, #270 ) ) ;
#167 =( NAMED_UNIT ( * ) PLANE_ANGLE_UNIT ( ) SI_UNIT ( $, .RADIAN. ) );
#168 = ADVANCED_FACE ( 'NONE', ( #235, #284 ), #210, .T. ) ;
#169 = ORIENTED_EDGE ( 'NONE', *, *, #296, .F. ) ;
#170 = ORIENTED_EDGE ( 'NONE', *, *, #261, .F. ) ;
#171 = ORIENTED_EDGE ( 'NONE', *, *, #307, .T. ) ;
#172 = EDGE_CURVE ( 'NONE', #65, #236, #153, .T. ) ;
#173 = CARTESIAN_POINT ( 'NONE',  ( 0.1472243186433546100, -0.2550000000000000000, -0.03125000000000000000 ) ) ;
#174 = DIRECTION ( 'NONE',  ( 0.5000000000000000000, 0.8660254037844386000, 0.0000000000000000000 ) ) ;
#175 = CARTESIAN_POINT ( 'NONE',  ( -0.3838582677165354200, 0.0000000000000000000, 0.03125000000000000000 ) ) ;
#176 = DIRECTION ( 'NONE',  ( 0.0000000000000000000, 0.0000000000000000000, 1.000000000000000000 ) ) ;
#177 = LENGTH_MEASURE_WITH_UNIT ( LENGTH_MEASURE( 0.02539999999999999900 ), #143 );
#178 = DIRECTION ( 'NONE',  ( 0.0000000000000000000, 0.0000000000000000000, 1.000000000000000000 ) ) ;
#179 = CARTESIAN_POINT ( 'NONE',  ( -0.2944486372867092200, 2.527242374660742700E-017, 0.03125000000000000000 ) ) ;
#180 =( LENGTH_UNIT ( ) NAMED_UNIT ( * ) SI_UNIT ( $, .METRE. ) );
#181 = AXIS2_PLACEMENT_3D ( 'NONE', #162, #62, #243 ) ;
#182 = DIRECTION ( 'NONE',  ( -0.4999999999999998900, -0.8660254037844386000, 0.0000000000000000000 ) ) ;
#183 = ADVANCED_FACE ( 'NONE', ( #146 ), #39, .T. ) ;
#184 = CARTESIAN_POINT ( 'NONE',  ( 0.0000000000000000000, 0.0000000000000000000, 0.03125000000000000000 ) ) ;
#185 = LENGTH_MEASURE_WITH_UNIT ( LENGTH_MEASURE( 0.02539999999999999900 ), #121 );
#186 =( NAMED_UNIT ( * ) SI_UNIT ( $, .STERADIAN. ) SOLID_ANGLE_UNIT ( ) );
#187 = ADVANCED_FACE ( 'NONE', ( #211 ), #25, .T. ) ;
#188 = VECTOR ( 'NONE', #331, 39.37007874015748100 ) ;
#189 = CARTESIAN_POINT ( 'NONE',  ( 0.1472243186433546100, -0.2550000000000000000, 0.03125000000000000000 ) ) ;
#190 = ORIENTED_EDGE ( 'NONE', *, *, #349, .T. ) ;
#191 = ORIENTED_EDGE ( 'NONE', *, *, #150, .F. ) ;
#192 = PRODUCT_RELATED_PRODUCT_CATEGORY ( 'part', '', ( #81 ) ) ;
#193 = DIRECTION ( 'NONE',  ( 0.0000000000000000000, -0.0000000000000000000, 1.000000000000000000 ) ) ;
#194 = DIRECTION ( 'NONE',  ( 0.0000000000000000000, 0.0000000000000000000, 1.000000000000000000 ) ) ;
#195 = PRODUCT_DEFINITION_FORMATION_WITH_SPECIFIED_SOURCE ( 'ANY', '', #81, .NOT_KNOWN. ) ;
#196 = LENGTH_MEASURE_WITH_UNIT ( LENGTH_MEASURE( 0.02539999999999999900 ), #180 );
#197 = PRODUCT_DEFINITION ( 'UNKNOWN', '', #195, #231 ) ;
#198 = CYLINDRICAL_SURFACE ( 'NONE', #208, 0.3838582677165354200 ) ;
#199 = AXIS2_PLACEMENT_3D ( 'NONE', #11, #41, #215 ) ;
#200 = DIRECTION ( 'NONE',  ( 3.479190826162944300E-016, -1.000000000000000000, 0.0000000000000000000 ) ) ;
#201 = VERTEX_POINT ( 'NONE', #226 ) ;
#202 = DIRECTION ( 'NONE',  ( -0.0000000000000000000, -0.0000000000000000000, -1.000000000000000000 ) ) ;
#203 = FACE_OUTER_BOUND ( 'NONE', #297, .T. ) ;
#204 = AXIS2_PLACEMENT_3D ( 'NONE', #53, #128, #111 ) ;
#205 = DIRECTION ( 'NONE',  ( -1.000000000000000000, -3.479190826162944300E-016, 0.0000000000000000000 ) ) ;
#206 = DIRECTION ( 'NONE',  ( 1.000000000000000000, 3.479190826162944300E-016, 0.0000000000000000000 ) ) ;
#207 =( NAMED_UNIT ( * ) PLANE_ANGLE_UNIT ( ) SI_UNIT ( $, .RADIAN. ) );
#208 = AXIS2_PLACEMENT_3D ( 'NONE', #109, #304, #267 ) ;
#209 = UNCERTAINTY_MEASURE_WITH_UNIT (LENGTH_MEASURE( 1.000000000000000100E-005 ), #320, 'distance_accuracy_value', 'NONE');
#210 = PLANE ( 'NONE',  #181 ) ;
#211 = FACE_OUTER_BOUND ( 'NONE', #259, .T. ) ;
#212 = ORIENTED_EDGE ( 'NONE', *, *, #351, .F. ) ;
#213 = ORIENTED_EDGE ( 'NONE', *, *, #13, .T. ) ;
#214 = APPLICATION_PROTOCOL_DEFINITION ( 'draft international standard', 'automotive_design', 1998, #246 ) ;
#215 = DIRECTION ( 'NONE',  ( 1.000000000000000000, 0.0000000000000000000, 0.0000000000000000000 ) ) ;
#216 = ADVANCED_FACE ( 'NONE', ( #203 ), #71, .T. ) ;
#217 = EDGE_CURVE ( 'NONE', #290, #232, #288, .T. ) ;
#218 = DIRECTION ( 'NONE',  ( -0.5000000000000000000, -0.8660254037844386000, 0.0000000000000000000 ) ) ;
#219 = EDGE_LOOP ( 'NONE', ( #346, #155 ) ) ;
#220 = EDGE_LOOP ( 'NONE', ( #244, #169, #171, #310 ) ) ;
#221 = EDGE_LOOP ( 'NONE', ( #264, #347, #6, #118 ) ) ;
#222 =( GEOMETRIC_REPRESENTATION_CONTEXT ( 3 ) GLOBAL_UNCERTAINTY_ASSIGNED_CONTEXT ( ( #228 ) ) GLOBAL_UNIT_ASSIGNED_CONTEXT ( ( #345, #167, #17 ) ) REPRESENTATION_CONTEXT ( 'NONE', 'WORKASPACE' ) );
#223 = FILL_AREA_STYLE_COLOUR ( '', #350 ) ;
#224 = VECTOR ( 'NONE', #275, 39.37007874015748900 ) ;
#225 = ORIENTED_EDGE ( 'NONE', *, *, #24, .T. ) ;
#226 = CARTESIAN_POINT ( 'NONE',  ( 0.3838582677165354200, 4.700907988853029100E-017, 0.03125000000000000000 ) ) ;
#227 = CARTESIAN_POINT ( 'NONE',  ( 0.1472243186433546100, -0.2550000000000000000, 0.03125000000000000000 ) ) ;
#228 = UNCERTAINTY_MEASURE_WITH_UNIT (LENGTH_MEASURE( 1.000000000000000100E-005 ), #345, 'distance_accuracy_value', 'NONE');
#229 = CARTESIAN_POINT ( 'NONE',  ( 0.1472243186433546100, -0.2550000000000000000, 0.03125000000000000000 ) ) ;
#230 = MECHANICAL_DESIGN_GEOMETRIC_PRESENTATION_REPRESENTATION (  '', ( #249 ), #222 ) ;
#231 = PRODUCT_DEFINITION_CONTEXT ( 'detailed design', #247, 'design' ) ;
#232 = VERTEX_POINT ( 'NONE', #122 ) ;
#233 = CARTESIAN_POINT ( 'NONE',  ( 0.1472243186433544700, 0.2550000000000001700, 0.03125000000000000000 ) ) ;
#234 = PRESENTATION_LAYER_ASSIGNMENT (  '', '', ( #249 ) ) ;
#235 = FACE_OUTER_BOUND ( 'NONE', #166, .T. ) ;
#236 = VERTEX_POINT ( 'NONE', #322 ) ;
#237 = CARTESIAN_POINT ( 'NONE',  ( -0.2944486372867092800, 1.707404996040164500E-017, 0.03125000000000000000 ) ) ;
#238 = SHAPE_DEFINITION_REPRESENTATION ( #20, #37 ) ;
#239 = PRESENTATION_STYLE_ASSIGNMENT (( #287 ) ) ;
#240 = DIRECTION ( 'NONE',  ( 1.000000000000000000, 0.0000000000000000000, 0.0000000000000000000 ) ) ;
#241 = EDGE_LOOP ( 'NONE', ( #250, #336, #311, #64, #142, #260 ) ) ;
#242 = SURFACE_STYLE_FILL_AREA ( #253 ) ;
#243 = DIRECTION ( 'NONE',  ( 1.000000000000000000, 0.0000000000000000000, -0.0000000000000000000 ) ) ;
#244 = ORIENTED_EDGE ( 'NONE', *, *, #27, .F. ) ;
#245 = FACE_OUTER_BOUND ( 'NONE', #220, .T. ) ;
#246 = APPLICATION_CONTEXT ( 'automotive_design' ) ;
#247 = APPLICATION_CONTEXT ( 'automotive_design' ) ;
#248 = VERTEX_POINT ( 'NONE', #173 ) ;
#249 = STYLED_ITEM ( 'NONE', ( #268 ), #37 ) ;
#250 = ORIENTED_EDGE ( 'NONE', *, *, #66, .T. ) ;
#251 = CARTESIAN_POINT ( 'NONE',  ( 0.3838582677165354200, 4.700907988853029100E-017, 0.03125000000000000000 ) ) ;
#252 = LINE ( 'NONE', #69, #108 ) ;
#253 = FILL_AREA_STYLE ('',( #223 ) ) ;
#254 = ORIENTED_EDGE ( 'NONE', *, *, #87, .T. ) ;
#255 = CARTESIAN_POINT ( 'NONE',  ( 0.2944486372867092200, 1.028089255413782600E-017, 0.03125000000000000000 ) ) ;
#256 = AXIS2_PLACEMENT_3D ( 'NONE', #4, #200, #206 ) ;
#257 = CARTESIAN_POINT ( 'NONE',  ( 0.1472243186433546100, -0.2550000000000000000, 0.03125000000000000000 ) ) ;
#258 = PLANE ( 'NONE',  #61 ) ;
#259 = EDGE_LOOP ( 'NONE', ( #148, #92, #106, #147 ) ) ;
#260 = ORIENTED_EDGE ( 'NONE', *, *, #312, .T. ) ;
#261 = EDGE_CURVE ( 'NONE', #236, #348, #54, .T. ) ;
#262 = VECTOR ( 'NONE', #240, 39.37007874015748100 ) ;
#263 =( GEOMETRIC_REPRESENTATION_CONTEXT ( 3 ) GLOBAL_UNCERTAINTY_ASSIGNED_CONTEXT ( ( #76 ) ) GLOBAL_UNIT_ASSIGNED_CONTEXT ( ( #36, #207, #186 ) ) REPRESENTATION_CONTEXT ( 'NONE', 'WORKASPACE' ) );
#264 = ORIENTED_EDGE ( 'NONE', *, *, #55, .F. ) ;
#265 = DIRECTION ( 'NONE',  ( -0.0000000000000000000, -0.0000000000000000000, -1.000000000000000000 ) ) ;
#266 = CARTESIAN_POINT ( 'NONE',  ( -0.2944486372867092200, 2.527242374660742700E-017, 0.03125000000000000000 ) ) ;
#267 = DIRECTION ( 'NONE',  ( -1.000000000000000000, 0.0000000000000000000, 0.0000000000000000000 ) ) ;
#268 = PRESENTATION_STYLE_ASSIGNMENT (( #317 ) ) ;
#269 = PLANE ( 'NONE',  #204 ) ;
#270 = ORIENTED_EDGE ( 'NONE', *, *, #117, .T. ) ;
#271 = AXIS2_PLACEMENT_3D ( 'NONE', #7, #176, #33 ) ;
#272 = CARTESIAN_POINT ( 'NONE',  ( 0.1472243186433544700, 0.2550000000000001700, 0.03125000000000000000 ) ) ;
#273 = LINE ( 'NONE', #335, #262 ) ;
#274 = ORIENTED_EDGE ( 'NONE', *, *, #24, .F. ) ;
#275 = DIRECTION ( 'NONE',  ( -0.5000000000000001100, 0.8660254037844384900, 0.0000000000000000000 ) ) ;
#276 = AXIS2_PLACEMENT_3D ( 'NONE', #189, #43, #218 ) ;
#277 = FILL_AREA_STYLE ('',( #94 ) ) ;
#278 = ORIENTED_EDGE ( 'NONE', *, *, #344, .F. ) ;
#279 = FACE_OUTER_BOUND ( 'NONE', #315, .T. ) ;
#280 = ADVANCED_FACE ( 'NONE', ( #16 ), #258, .T. ) ;
#281 = VECTOR ( 'NONE', #159, 39.37007874015748900 ) ;
#282 =( GEOMETRIC_REPRESENTATION_CONTEXT ( 3 ) GLOBAL_UNCERTAINTY_ASSIGNED_CONTEXT ( ( #209 ) ) GLOBAL_UNIT_ASSIGNED_CONTEXT ( ( #320, #145, #1 ) ) REPRESENTATION_CONTEXT ( 'NONE', 'WORKASPACE' ) );
#283 = CARTESIAN_POINT ( 'NONE',  ( -0.1472243186433546400, 0.2550000000000000600, 0.03125000000000000000 ) ) ;
#284 = FACE_BOUND ( 'NONE', #339, .T. ) ;
#285 = ORIENTED_EDGE ( 'NONE', *, *, #163, .F. ) ;
#286 = VERTEX_POINT ( 'NONE', #294 ) ;
#287 = SURFACE_STYLE_USAGE ( .BOTH. , #98 ) ;
#288 = CIRCLE ( 'NONE', #110, 0.3838582677165354200 ) ;
#289 = DIRECTION ( 'NONE',  ( 0.5000000000000001100, -0.8660254037844384900, 0.0000000000000000000 ) ) ;
#290 = VERTEX_POINT ( 'NONE', #74 ) ;
#291 = EDGE_LOOP ( 'NONE', ( #170, #316, #300, #325 ) ) ;
#292 = DIRECTION ( 'NONE',  ( 0.5000000000000001100, -0.8660254037844386000, 0.0000000000000000000 ) ) ;
#293 = SURFACE_STYLE_FILL_AREA ( #277 ) ;
#294 = CARTESIAN_POINT ( 'NONE',  ( 0.1472243186433544700, 0.2550000000000001700, 0.03125000000000000000 ) ) ;
#295 = ORIENTED_EDGE ( 'NONE', *, *, #150, .T. ) ;
#296 = EDGE_CURVE ( 'NONE', #334, #248, #305, .T. ) ;
#297 = EDGE_LOOP ( 'NONE', ( #136, #154, #134, #213 ) ) ;
#298 = CARTESIAN_POINT ( 'NONE',  ( -0.1472243186433546400, 0.2550000000000000600, 0.03125000000000000000 ) ) ;
#299 = VERTEX_POINT ( 'NONE', #103 ) ;
#300 = ORIENTED_EDGE ( 'NONE', *, *, #351, .T. ) ;
#301 = CARTESIAN_POINT ( 'NONE',  ( -0.1472243186433546400, -0.2550000000000000000, -0.03125000000000000000 ) ) ;
#302 = MECHANICAL_DESIGN_GEOMETRIC_PRESENTATION_REPRESENTATION (  '', ( #324 ), #282 ) ;
#303 = DIRECTION ( 'NONE',  ( -0.5000000000000001100, 0.8660254037844386000, 0.0000000000000000000 ) ) ;
#304 = DIRECTION ( 'NONE',  ( -0.0000000000000000000, -0.0000000000000000000, -1.000000000000000000 ) ) ;
#305 = LINE ( 'NONE', #227, #82 ) ;
#306 = DIRECTION ( 'NONE',  ( 0.0000000000000000000, 1.000000000000000000, 0.0000000000000000000 ) ) ;
#307 = EDGE_CURVE ( 'NONE', #334, #23, #90, .T. ) ;
#308 = VECTOR ( 'NONE', #35, 39.37007874015748100 ) ;
#309 = ORIENTED_EDGE ( 'NONE', *, *, #47, .F. ) ;
#310 = ORIENTED_EDGE ( 'NONE', *, *, #58, .T. ) ;
#311 = ORIENTED_EDGE ( 'NONE', *, *, #172, .T. ) ;
#312 = EDGE_CURVE ( 'NONE', #299, #60, #15, .T. ) ;
#313 = VECTOR ( 'NONE', #292, 39.37007874015748100 ) ;
#314 = LINE ( 'NONE', #158, #49 ) ;
#315 = EDGE_LOOP ( 'NONE', ( #329, #63, #295, #88 ) ) ;
#316 = ORIENTED_EDGE ( 'NONE', *, *, #13, .F. ) ;
#317 = SURFACE_STYLE_USAGE ( .BOTH. , #116 ) ;
#318 = VERTEX_POINT ( 'NONE', #48 ) ;
#319 = LINE ( 'NONE', #179, #308 ) ;
#320 =( CONVERSION_BASED_UNIT ( 'INCH', #185 ) LENGTH_UNIT ( ) NAMED_UNIT ( #89 ) );
#321 = PRESENTATION_LAYER_ASSIGNMENT (  '', '', ( #324 ) ) ;
#322 = CARTESIAN_POINT ( 'NONE',  ( 0.1472243186433544700, 0.2550000000000001700, -0.03125000000000000000 ) ) ;
#323 = AXIS2_PLACEMENT_3D ( 'NONE', #266, #132, #303 ) ;
#324 = STYLED_ITEM ( 'NONE', ( #239 ), #29 ) ;
#325 = ORIENTED_EDGE ( 'NONE', *, *, #45, .T. ) ;
#326 = PLANE ( 'NONE',  #256 ) ;
#327 = LINE ( 'NONE', #233, #332 ) ;
#328 = CARTESIAN_POINT ( 'NONE',  ( -0.1472243186433545600, -0.2550000000000000000, -0.03125000000000000000 ) ) ;
#329 = ORIENTED_EDGE ( 'NONE', *, *, #312, .F. ) ;
#330 = EDGE_LOOP ( 'NONE', ( #101, #309, #225, #126 ) ) ;
#331 = DIRECTION ( 'NONE',  ( 0.5000000000000001100, -0.8660254037844386000, 0.0000000000000000000 ) ) ;
#332 = VECTOR ( 'NONE', #5, 39.37007874015748100 ) ;
#333 = EDGE_CURVE ( 'NONE', #93, #290, #129, .T. ) ;
#334 = VERTEX_POINT ( 'NONE', #229 ) ;
#335 = CARTESIAN_POINT ( 'NONE',  ( -0.1472243186433545600, -0.2550000000000000000, 0.03125000000000000000 ) ) ;
#336 = ORIENTED_EDGE ( 'NONE', *, *, #27, .T. ) ;
#337 = EDGE_CURVE ( 'NONE', #232, #290, #80, .T. ) ;
#338 = DIRECTION ( 'NONE',  ( 0.0000000000000000000, 0.0000000000000000000, 1.000000000000000000 ) ) ;
#339 = EDGE_LOOP ( 'NONE', ( #70, #274, #191, #100, #212, #278 ) ) ;
#340 = CARTESIAN_POINT ( 'NONE',  ( 0.2944486372867092200, 1.028089255413782600E-017, -0.03125000000000000000 ) ) ;
#341 = ORIENTED_EDGE ( 'NONE', *, *, #45, .F. ) ;
#342 = DIRECTION ( 'NONE',  ( -1.000000000000000000, 0.0000000000000000000, 0.0000000000000000000 ) ) ;
#343 = LINE ( 'NONE', #86, #281 ) ;
#344 = EDGE_CURVE ( 'NONE', #23, #286, #314, .T. ) ;
#345 =( CONVERSION_BASED_UNIT ( 'INCH', #177 ) LENGTH_UNIT ( ) NAMED_UNIT ( #42 ) );
#346 = ORIENTED_EDGE ( 'NONE', *, *, #217, .F. ) ;
#347 = ORIENTED_EDGE ( 'NONE', *, *, #349, .F. ) ;
#348 = VERTEX_POINT ( 'NONE', #85 ) ;
#349 = EDGE_CURVE ( 'NONE', #93, #201, #12, .T. ) ;
#350 = COLOUR_RGB ( '',0.4941176470588235500, 0.4941176470588235500, 0.4941176470588235500 ) ;
#351 = EDGE_CURVE ( 'NONE', #286, #141, #83, .T. ) ;
ENDSEC;
END-ISO-10303-21;
