ISO-10303-21;
HEADER;
FILE_DESCRIPTION (( 'STEP AP214' ),
    '1' );
FILE_NAME ('217-3256-STEP.STEP',
    '2013-12-06T21:06:27',
    ( '' ),
    ( '' ),
    'SwSTEP 2.0',
    'SolidWorks 2013',
    '' );
FILE_SCHEMA (( 'AUTOMOTIVE_DESIGN' ));
ENDSEC;

DATA;
#1 = ORIENTED_EDGE ( 'NONE', *, *, #180, .T. ) ;
#2 = CARTESIAN_POINT ( 'NONE',  ( -0.1111399268190029600, -0.1925000000000001400, -0.06250000000000000000 ) ) ;
#3 = VERTEX_POINT ( 'NONE', #321 ) ;
#4 = FILL_AREA_STYLE ('',( #179 ) ) ;
#5 = CARTESIAN_POINT ( 'NONE',  ( -0.2222798536380059300, -6.829619984160658000E-017, 0.06250000000000000000 ) ) ;
#6 = PLANE ( 'NONE',  #325 ) ;
#7 = CARTESIAN_POINT ( 'NONE',  ( -0.3125000000000000000, 0.0000000000000000000, 0.06250000000000000000 ) ) ;
#8 = CARTESIAN_POINT ( 'NONE',  ( 0.0000000000000000000, 0.0000000000000000000, 0.06250000000000000000 ) ) ;
#9 = CARTESIAN_POINT ( 'NONE',  ( 0.0000000000000000000, 0.0000000000000000000, 0.0000000000000000000 ) ) ;
#10 = AXIS2_PLACEMENT_3D ( 'NONE', #234, #105, #114 ) ;
#11 = LINE ( 'NONE', #68, #93 ) ;
#12 = CARTESIAN_POINT ( 'NONE',  ( 0.0000000000000000000, 0.0000000000000000000, 0.06250000000000000000 ) ) ;
#13 = ORIENTED_EDGE ( 'NONE', *, *, #270, .F. ) ;
#14 = DIRECTION ( 'NONE',  ( 0.4999999999999996100, 0.8660254037844388200, 0.0000000000000000000 ) ) ;
#15 = DIRECTION ( 'NONE',  ( 0.4999999999999996100, 0.8660254037844388200, 0.0000000000000000000 ) ) ;
#16 = PLANE ( 'NONE',  #335 ) ;
#17 = VECTOR ( 'NONE', #136, 39.37007874015748900 ) ;
#18 = CARTESIAN_POINT ( 'NONE',  ( 0.0000000000000000000, 0.0000000000000000000, 0.06250000000000000000 ) ) ;
#19 = ORIENTED_EDGE ( 'NONE', *, *, #235, .T. ) ;
#20 = FACE_OUTER_BOUND ( 'NONE', #65, .T. ) ;
#21 = CARTESIAN_POINT ( 'NONE',  ( -0.2222798536380059800, -6.829619984160656800E-017, 0.06250000000000000000 ) ) ;
#22 = CARTESIAN_POINT ( 'NONE',  ( -0.1111399268190030300, 0.1925000000000000600, 0.06250000000000000000 ) ) ;
#23 = LINE ( 'NONE', #209, #326 ) ;
#24 = SURFACE_STYLE_USAGE ( .BOTH. , #199 ) ;
#25 = CIRCLE ( 'NONE', #310, 0.3125000000000000000 ) ;
#26 = AXIS2_PLACEMENT_3D ( 'NONE', #12, #216, #34 ) ;
#27 = CARTESIAN_POINT ( 'NONE',  ( 0.0000000000000000000, 0.0000000000000000000, -0.06250000000000000000 ) ) ;
#28 = DIRECTION ( 'NONE',  ( 1.536266079084936900E-016, -1.000000000000000000, 0.0000000000000000000 ) ) ;
#29 = CARTESIAN_POINT ( 'NONE',  ( 0.2222798536380059300, 6.082630298393085800E-017, 0.06250000000000000000 ) ) ;
#30 = DIRECTION ( 'NONE',  ( -0.4999999999999996100, -0.8660254037844388200, 0.0000000000000000000 ) ) ;
#31 = VERTEX_POINT ( 'NONE', #5 ) ;
#32 = CARTESIAN_POINT ( 'NONE',  ( 0.0000000000000000000, 0.0000000000000000000, -0.06250000000000000000 ) ) ;
#33 = AXIS2_PLACEMENT_3D ( 'NONE', #328, #267, #174 ) ;
#34 = DIRECTION ( 'NONE',  ( 1.000000000000000000, 0.0000000000000000000, -0.0000000000000000000 ) ) ;
#35 = AXIS2_PLACEMENT_3D ( 'NONE', #22, #238, #53 ) ;
#36 = CLOSED_SHELL ( 'NONE', ( #70, #101, #46, #220, #129, #161, #72, #193, #97, #158 ) ) ;
#37 = VECTOR ( 'NONE', #38, 39.37007874015748100 ) ;
#38 = DIRECTION ( 'NONE',  ( -0.5000000000000004400, 0.8660254037844383700, 0.0000000000000000000 ) ) ;
#39 = ORIENTED_EDGE ( 'NONE', *, *, #288, .F. ) ;
#40 = ORIENTED_EDGE ( 'NONE', *, *, #233, .F. ) ;
#41 = DIMENSIONAL_EXPONENTS ( 1.000000000000000000, 0.0000000000000000000, 0.0000000000000000000, 0.0000000000000000000, 0.0000000000000000000, 0.0000000000000000000, 0.0000000000000000000 ) ;
#42 = CARTESIAN_POINT ( 'NONE',  ( 0.1111399268190029600, -0.1925000000000000900, 0.06250000000000000000 ) ) ;
#43 = DIMENSIONAL_EXPONENTS ( 1.000000000000000000, 0.0000000000000000000, 0.0000000000000000000, 0.0000000000000000000, 0.0000000000000000000, 0.0000000000000000000, 0.0000000000000000000 ) ;
#44 = VECTOR ( 'NONE', #124, 39.37007874015748100 ) ;
#45 = AXIS2_PLACEMENT_3D ( 'NONE', #18, #165, #194 ) ;
#46 = ADVANCED_FACE ( 'NONE', ( #228, #221 ), #320, .F. ) ;
#47 = CARTESIAN_POINT ( 'NONE',  ( -0.1111399268190030300, 0.1925000000000000600, 0.06250000000000000000 ) ) ;
#48 = VECTOR ( 'NONE', #336, 39.37007874015748100 ) ;
#49 = ORIENTED_EDGE ( 'NONE', *, *, #200, .T. ) ;
#50 = AXIS2_PLACEMENT_3D ( 'NONE', #54, #268, #83 ) ;
#51 = DIRECTION ( 'NONE',  ( -1.000000000000000000, 0.0000000000000000000, 0.0000000000000000000 ) ) ;
#52 = DIRECTION ( 'NONE',  ( 0.0000000000000000000, 0.0000000000000000000, 1.000000000000000000 ) ) ;
#53 = DIRECTION ( 'NONE',  ( 0.4999999999999997200, 0.8660254037844388200, 0.0000000000000000000 ) ) ;
#54 = CARTESIAN_POINT ( 'NONE',  ( -0.1111399268190029600, -0.1925000000000001400, 0.06250000000000000000 ) ) ;
#55 =( CONVERSION_BASED_UNIT ( 'INCH', #57 ) LENGTH_UNIT ( ) NAMED_UNIT ( #311 ) );
#56 = VERTEX_POINT ( 'NONE', #206 ) ;
#57 = LENGTH_MEASURE_WITH_UNIT ( LENGTH_MEASURE( 0.02539999999999999900 ), #242 );
#58 = COLOUR_RGB ( '',0.4941176470588235500, 0.4941176470588235500, 0.4941176470588235500 ) ;
#59 = EDGE_LOOP ( 'NONE', ( #202, #157 ) ) ;
#60 = VERTEX_POINT ( 'NONE', #351 ) ;
#61 = DIRECTION ( 'NONE',  ( -0.0000000000000000000, -0.0000000000000000000, -1.000000000000000000 ) ) ;
#62 = PRODUCT ( '217-3256-STEP', '217-3256-STEP', '', ( #155 ) ) ;
#63 = DIRECTION ( 'NONE',  ( 1.000000000000000000, 0.0000000000000000000, 0.0000000000000000000 ) ) ;
#64 = ORIENTED_EDGE ( 'NONE', *, *, #233, .T. ) ;
#65 = EDGE_LOOP ( 'NONE', ( #146, #183, #285, #191 ) ) ;
#66 = ORIENTED_EDGE ( 'NONE', *, *, #126, .T. ) ;
#67 = VECTOR ( 'NONE', #309, 39.37007874015748100 ) ;
#68 = CARTESIAN_POINT ( 'NONE',  ( -0.1111399268190030300, 0.1925000000000000600, 0.06250000000000000000 ) ) ;
#69 = DIRECTION ( 'NONE',  ( 1.000000000000000000, 1.536266079084936400E-016, 0.0000000000000000000 ) ) ;
#70 = ADVANCED_FACE ( 'NONE', ( #20 ), #261, .T. ) ;
#71 = CARTESIAN_POINT ( 'NONE',  ( -0.2222798536380059800, -6.829619984160656800E-017, 0.06250000000000000000 ) ) ;
#72 = ADVANCED_FACE ( 'NONE', ( #133 ), #74, .T. ) ;
#73 = VECTOR ( 'NONE', #117, 39.37007874015748100 ) ;
#74 = PLANE ( 'NONE',  #10 ) ;
#75 = VERTEX_POINT ( 'NONE', #47 ) ;
#76 = AXIS2_PLACEMENT_3D ( 'NONE', #27, #299, #338 ) ;
#77 = CARTESIAN_POINT ( 'NONE',  ( -0.2222798536380059800, -6.829619984160656800E-017, 0.06250000000000000000 ) ) ;
#78 = SURFACE_STYLE_FILL_AREA ( #175 ) ;
#79 = UNCERTAINTY_MEASURE_WITH_UNIT (LENGTH_MEASURE( 1.000000000000000100E-005 ), #81, 'distance_accuracy_value', 'NONE');
#80 = ORIENTED_EDGE ( 'NONE', *, *, #244, .T. ) ;
#81 =( CONVERSION_BASED_UNIT ( 'INCH', #253 ) LENGTH_UNIT ( ) NAMED_UNIT ( #43 ) );
#82 = CARTESIAN_POINT ( 'NONE',  ( -0.1111399268190029600, -0.1925000000000001400, 0.06250000000000000000 ) ) ;
#83 = DIRECTION ( 'NONE',  ( -1.000000000000000000, -1.536266079084936400E-016, 0.0000000000000000000 ) ) ;
#84 =( NAMED_UNIT ( * ) SI_UNIT ( $, .STERADIAN. ) SOLID_ANGLE_UNIT ( ) );
#85 = LINE ( 'NONE', #160, #346 ) ;
#86 = ORIENTED_EDGE ( 'NONE', *, *, #288, .T. ) ;
#87 = ORIENTED_EDGE ( 'NONE', *, *, #246, .F. ) ;
#88 = DIRECTION ( 'NONE',  ( -0.0000000000000000000, -0.0000000000000000000, -1.000000000000000000 ) ) ;
#89 = LENGTH_MEASURE_WITH_UNIT ( LENGTH_MEASURE( 0.02539999999999999900 ), #304 );
#90 = SURFACE_STYLE_USAGE ( .BOTH. , #278 ) ;
#91 = VERTEX_POINT ( 'NONE', #315 ) ;
#92 = VERTEX_POINT ( 'NONE', #2 ) ;
#93 = VECTOR ( 'NONE', #96, 39.37007874015748900 ) ;
#94 = CARTESIAN_POINT ( 'NONE',  ( -0.1111399268190030300, 0.1925000000000000600, -0.06250000000000000000 ) ) ;
#95 = ORIENTED_EDGE ( 'NONE', *, *, #154, .T. ) ;
#96 = DIRECTION ( 'NONE',  ( -0.4999999999999996100, -0.8660254037844388200, 0.0000000000000000000 ) ) ;
#97 = ADVANCED_FACE ( 'NONE', ( #127 ), #337, .T. ) ;
#98 = PRESENTATION_STYLE_ASSIGNMENT (( #90 ) ) ;
#99 = EDGE_LOOP ( 'NONE', ( #106, #333, #280, #135 ) ) ;
#100 = DIRECTION ( 'NONE',  ( -0.5000000000000000000, 0.8660254037844386000, 0.0000000000000000000 ) ) ;
#101 = ADVANCED_FACE ( 'NONE', ( #213, #190 ), #168, .T. ) ;
#102 = ORIENTED_EDGE ( 'NONE', *, *, #126, .F. ) ;
#103 = ORIENTED_EDGE ( 'NONE', *, *, #252, .T. ) ;
#104 = ORIENTED_EDGE ( 'NONE', *, *, #121, .T. ) ;
#105 = DIRECTION ( 'NONE',  ( -0.8660254037844383700, -0.5000000000000004400, 0.0000000000000000000 ) ) ;
#106 = ORIENTED_EDGE ( 'NONE', *, *, #204, .F. ) ;
#107 = UNCERTAINTY_MEASURE_WITH_UNIT (LENGTH_MEASURE( 1.000000000000000100E-005 ), #120, 'distance_accuracy_value', 'NONE');
#108 = CARTESIAN_POINT ( 'NONE',  ( 0.1111399268190029600, -0.1925000000000000900, 0.06250000000000000000 ) ) ;
#109 =( NAMED_UNIT ( * ) SI_UNIT ( $, .STERADIAN. ) SOLID_ANGLE_UNIT ( ) );
#110 = CARTESIAN_POINT ( 'NONE',  ( 0.0000000000000000000, 0.0000000000000000000, 0.06250000000000000000 ) ) ;
#111 = DIRECTION ( 'NONE',  ( 0.0000000000000000000, 0.0000000000000000000, 1.000000000000000000 ) ) ;
#112 = EDGE_LOOP ( 'NONE', ( #102, #40, #80, #251 ) ) ;
#113 = EDGE_CURVE ( 'NONE', #264, #207, #323, .T. ) ;
#114 = DIRECTION ( 'NONE',  ( 0.5000000000000004400, -0.8660254037844383700, 0.0000000000000000000 ) ) ;
#115 = SHAPE_DEFINITION_REPRESENTATION ( #282, #176 ) ;
#116 = VECTOR ( 'NONE', #14, 39.37007874015748100 ) ;
#117 = DIRECTION ( 'NONE',  ( -0.0000000000000000000, -0.0000000000000000000, -1.000000000000000000 ) ) ;
#118 = ORIENTED_EDGE ( 'NONE', *, *, #244, .F. ) ;
#119 = DIRECTION ( 'NONE',  ( -0.0000000000000000000, -0.0000000000000000000, -1.000000000000000000 ) ) ;
#120 =( CONVERSION_BASED_UNIT ( 'INCH', #89 ) LENGTH_UNIT ( ) NAMED_UNIT ( #41 ) );
#121 = EDGE_CURVE ( 'NONE', #271, #152, #153, .T. ) ;
#122 = ORIENTED_EDGE ( 'NONE', *, *, #275, .F. ) ;
#123 = EDGE_CURVE ( 'NONE', #152, #60, #201, .T. ) ;
#124 = DIRECTION ( 'NONE',  ( -1.000000000000000000, -1.536266079084936900E-016, 0.0000000000000000000 ) ) ;
#125 = LINE ( 'NONE', #21, #17 ) ;
#126 = EDGE_CURVE ( 'NONE', #60, #92, #339, .T. ) ;
#127 = FACE_OUTER_BOUND ( 'NONE', #144, .T. ) ;
#128 = ORIENTED_EDGE ( 'NONE', *, *, #154, .F. ) ;
#129 = ADVANCED_FACE ( 'NONE', ( #349 ), #241, .T. ) ;
#130 = CIRCLE ( 'NONE', #319, 0.3125000000000000000 ) ;
#131 = CARTESIAN_POINT ( 'NONE',  ( -0.1111399268190029600, -0.1925000000000001400, 0.06250000000000000000 ) ) ;
#132 = VERTEX_POINT ( 'NONE', #29 ) ;
#133 = FACE_OUTER_BOUND ( 'NONE', #277, .T. ) ;
#134 = VECTOR ( 'NONE', #30, 39.37007874015748900 ) ;
#135 = ORIENTED_EDGE ( 'NONE', *, *, #293, .T. ) ;
#136 = DIRECTION ( 'NONE',  ( 0.5000000000000000000, -0.8660254037844386000, 0.0000000000000000000 ) ) ;
#137 = APPLICATION_PROTOCOL_DEFINITION ( 'draft international standard', 'automotive_design', 1998, #169 ) ;
#138 = ORIENTED_EDGE ( 'NONE', *, *, #246, .T. ) ;
#139 = DIRECTION ( 'NONE',  ( 1.000000000000000000, 0.0000000000000000000, 0.0000000000000000000 ) ) ;
#140 = VERTEX_POINT ( 'NONE', #188 ) ;
#141 = VERTEX_POINT ( 'NONE', #7 ) ;
#142 = PRESENTATION_STYLE_ASSIGNMENT (( #24 ) ) ;
#143 = VECTOR ( 'NONE', #88, 39.37007874015748100 ) ;
#144 = EDGE_LOOP ( 'NONE', ( #301, #178, #239, #64 ) ) ;
#145 = ORIENTED_EDGE ( 'NONE', *, *, #147, .F. ) ;
#146 = ORIENTED_EDGE ( 'NONE', *, *, #243, .F. ) ;
#147 = EDGE_CURVE ( 'NONE', #3, #92, #313, .T. ) ;
#148 = CARTESIAN_POINT ( 'NONE',  ( 0.1111399268190028500, 0.1925000000000000900, 0.06250000000000000000 ) ) ;
#149 = FILL_AREA_STYLE_COLOUR ( '', #58 ) ;
#150 = DIRECTION ( 'NONE',  ( -0.0000000000000000000, -0.0000000000000000000, -1.000000000000000000 ) ) ;
#151 =( NAMED_UNIT ( * ) SI_UNIT ( $, .STERADIAN. ) SOLID_ANGLE_UNIT ( ) );
#152 = VERTEX_POINT ( 'NONE', #331 ) ;
#153 = LINE ( 'NONE', #307, #44 ) ;
#154 = EDGE_CURVE ( 'NONE', #227, #171, #306, .T. ) ;
#155 = PRODUCT_CONTEXT ( 'NONE', #169, 'mechanical' ) ;
#156 = LINE ( 'NONE', #187, #67 ) ;
#157 = ORIENTED_EDGE ( 'NONE', *, *, #113, .F. ) ;
#158 = ADVANCED_FACE ( 'NONE', ( #286 ), #192, .T. ) ;
#159 = PRODUCT_DEFINITION_CONTEXT ( 'detailed design', #342, 'design' ) ;
#160 = CARTESIAN_POINT ( 'NONE',  ( 0.1111399268190029600, -0.1925000000000000900, -0.06250000000000000000 ) ) ;
#161 = ADVANCED_FACE ( 'NONE', ( #279 ), #16, .T. ) ;
#162 = DIRECTION ( 'NONE',  ( -0.0000000000000000000, -0.0000000000000000000, -1.000000000000000000 ) ) ;
#163 = DIRECTION ( 'NONE',  ( -0.8660254037844388200, 0.4999999999999996100, 0.0000000000000000000 ) ) ;
#164 = VECTOR ( 'NONE', #69, 39.37007874015748100 ) ;
#165 = DIRECTION ( 'NONE',  ( -0.0000000000000000000, -0.0000000000000000000, -1.000000000000000000 ) ) ;
#166 = EDGE_LOOP ( 'NONE', ( #122, #145, #103, #95 ) ) ;
#167 = ORIENTED_EDGE ( 'NONE', *, *, #243, .T. ) ;
#168 = PLANE ( 'NONE',  #26 ) ;
#169 = APPLICATION_CONTEXT ( 'automotive_design' ) ;
#170 = LINE ( 'NONE', #303, #245 ) ;
#171 = VERTEX_POINT ( 'NONE', #312 ) ;
#172 = ORIENTED_EDGE ( 'NONE', *, *, #275, .T. ) ;
#173 = DIRECTION ( 'NONE',  ( -0.0000000000000000000, -0.0000000000000000000, -1.000000000000000000 ) ) ;
#174 = DIRECTION ( 'NONE',  ( 1.000000000000000000, 0.0000000000000000000, 0.0000000000000000000 ) ) ;
#175 = FILL_AREA_STYLE ('',( #149 ) ) ;
#176 = ADVANCED_BREP_SHAPE_REPRESENTATION ( '217-3256-STEP', ( #295, #229 ), #284 ) ;
#177 = CARTESIAN_POINT ( 'NONE',  ( -0.3125000000000000000, 0.0000000000000000000, -0.06250000000000000000 ) ) ;
#178 = ORIENTED_EDGE ( 'NONE', *, *, #200, .F. ) ;
#179 = FILL_AREA_STYLE_COLOUR ( '', #305 ) ;
#180 = EDGE_CURVE ( 'NONE', #132, #91, #217, .T. ) ;
#181 = APPLICATION_PROTOCOL_DEFINITION ( 'draft international standard', 'automotive_design', 1998, #342 ) ;
#182 = EDGE_LOOP ( 'NONE', ( #13, #128, #138, #1 ) ) ;
#183 = ORIENTED_EDGE ( 'NONE', *, *, #204, .T. ) ;
#184 = EDGE_LOOP ( 'NONE', ( #19, #167 ) ) ;
#185 = EDGE_CURVE ( 'NONE', #141, #207, #254, .T. ) ;
#186 = LINE ( 'NONE', #344, #116 ) ;
#187 = CARTESIAN_POINT ( 'NONE',  ( 0.1111399268190028500, 0.1925000000000000900, 0.06250000000000000000 ) ) ;
#188 = CARTESIAN_POINT ( 'NONE',  ( 0.3125000000000000000, 3.827021247335478900E-017, 0.06250000000000000000 ) ) ;
#189 = CARTESIAN_POINT ( 'NONE',  ( 0.2222798536380059300, 6.082630298393085800E-017, 0.06250000000000000000 ) ) ;
#190 = FACE_BOUND ( 'NONE', #198, .T. ) ;
#191 = ORIENTED_EDGE ( 'NONE', *, *, #185, .F. ) ;
#192 = PLANE ( 'NONE',  #347 ) ;
#193 = ADVANCED_FACE ( 'NONE', ( #274 ), #6, .T. ) ;
#194 = DIRECTION ( 'NONE',  ( -1.000000000000000000, 0.0000000000000000000, 0.0000000000000000000 ) ) ;
#195 = EDGE_CURVE ( 'NONE', #56, #271, #170, .T. ) ;
#196 = VECTOR ( 'NONE', #292, 39.37007874015748900 ) ;
#197 = ORIENTED_EDGE ( 'NONE', *, *, #262, .T. ) ;
#198 = EDGE_LOOP ( 'NONE', ( #87, #219, #118, #240, #247, #39 ) ) ;
#199 = SURFACE_SIDE_STYLE ('',( #231 ) ) ;
#200 = EDGE_CURVE ( 'NONE', #75, #152, #211, .T. ) ;
#201 = LINE ( 'NONE', #94, #134 ) ;
#202 = ORIENTED_EDGE ( 'NONE', *, *, #293, .F. ) ;
#203 = PRODUCT_RELATED_PRODUCT_CATEGORY ( 'part', '', ( #62 ) ) ;
#204 = EDGE_CURVE ( 'NONE', #140, #264, #260, .T. ) ;
#205 = LINE ( 'NONE', #77, #48 ) ;
#206 = CARTESIAN_POINT ( 'NONE',  ( 0.1111399268190028500, 0.1925000000000000900, 0.06250000000000000000 ) ) ;
#207 = VERTEX_POINT ( 'NONE', #177 ) ;
#208 = EDGE_LOOP ( 'NONE', ( #222, #236, #197, #49 ) ) ;
#209 = CARTESIAN_POINT ( 'NONE',  ( 0.2222798536380059300, 6.082630298393085800E-017, -0.06250000000000000000 ) ) ;
#210 = PRODUCT_DEFINITION_FORMATION_WITH_SPECIFIED_SOURCE ( 'ANY', '', #62, .NOT_KNOWN. ) ;
#211 = LINE ( 'NONE', #276, #318 ) ;
#212 = ORIENTED_EDGE ( 'NONE', *, *, #195, .T. ) ;
#213 = FACE_OUTER_BOUND ( 'NONE', #184, .T. ) ;
#214 = ORIENTED_EDGE ( 'NONE', *, *, #180, .F. ) ;
#215 = EDGE_LOOP ( 'NONE', ( #172, #289, #272, #104, #259, #66 ) ) ;
#216 = DIRECTION ( 'NONE',  ( 0.0000000000000000000, 0.0000000000000000000, 1.000000000000000000 ) ) ;
#217 = LINE ( 'NONE', #230, #73 ) ;
#218 = PRODUCT_DEFINITION ( 'UNKNOWN', '', #210, #159 ) ;
#219 = ORIENTED_EDGE ( 'NONE', *, *, #252, .F. ) ;
#220 = ADVANCED_FACE ( 'NONE', ( #327 ), #291, .T. ) ;
#221 = FACE_BOUND ( 'NONE', #215, .T. ) ;
#222 = ORIENTED_EDGE ( 'NONE', *, *, #121, .F. ) ;
#223 = CARTESIAN_POINT ( 'NONE',  ( -0.1111399268190029600, -0.1925000000000001400, -0.06250000000000000000 ) ) ;
#224 = VECTOR ( 'NONE', #173, 39.37007874015748100 ) ;
#225 = DIRECTION ( 'NONE',  ( -0.0000000000000000000, -0.0000000000000000000, -1.000000000000000000 ) ) ;
#226 = ORIENTED_EDGE ( 'NONE', *, *, #300, .F. ) ;
#227 = VERTEX_POINT ( 'NONE', #108 ) ;
#228 = FACE_OUTER_BOUND ( 'NONE', #59, .T. ) ;
#229 = AXIS2_PLACEMENT_3D ( 'NONE', #9, #111, #317 ) ;
#230 = CARTESIAN_POINT ( 'NONE',  ( 0.2222798536380059300, 6.082630298393085800E-017, 0.06250000000000000000 ) ) ;
#231 = SURFACE_STYLE_FILL_AREA ( #4 ) ;
#232 = VECTOR ( 'NONE', #297, 39.37007874015748100 ) ;
#233 = EDGE_CURVE ( 'NONE', #31, #60, #205, .T. ) ;
#234 = CARTESIAN_POINT ( 'NONE',  ( 0.2222798536380059300, 6.082630298393085800E-017, 0.06250000000000000000 ) ) ;
#235 = EDGE_CURVE ( 'NONE', #141, #140, #130, .T. ) ;
#236 = ORIENTED_EDGE ( 'NONE', *, *, #195, .F. ) ;
#237 = CARTESIAN_POINT ( 'NONE',  ( 0.0000000000000000000, 0.0000000000000000000, 0.06250000000000000000 ) ) ;
#238 = DIRECTION ( 'NONE',  ( 0.8660254037844388200, -0.4999999999999997200, 0.0000000000000000000 ) ) ;
#239 = ORIENTED_EDGE ( 'NONE', *, *, #256, .T. ) ;
#240 = ORIENTED_EDGE ( 'NONE', *, *, #256, .F. ) ;
#241 = PLANE ( 'NONE',  #50 ) ;
#242 =( LENGTH_UNIT ( ) NAMED_UNIT ( * ) SI_UNIT ( $, .METRE. ) );
#243 = EDGE_CURVE ( 'NONE', #140, #141, #341, .T. ) ;
#244 = EDGE_CURVE ( 'NONE', #31, #3, #125, .T. ) ;
#245 = VECTOR ( 'NONE', #119, 39.37007874015748100 ) ;
#246 = EDGE_CURVE ( 'NONE', #227, #132, #186, .T. ) ;
#247 = ORIENTED_EDGE ( 'NONE', *, *, #262, .F. ) ;
#248 = DIRECTION ( 'NONE',  ( 1.000000000000000000, 1.536266079084936900E-016, 0.0000000000000000000 ) ) ;
#249 = CARTESIAN_POINT ( 'NONE',  ( -0.2222798536380059800, -6.829619984160656800E-017, -0.06250000000000000000 ) ) ;
#250 = DIRECTION ( 'NONE',  ( 0.0000000000000000000, 0.0000000000000000000, 1.000000000000000000 ) ) ;
#251 = ORIENTED_EDGE ( 'NONE', *, *, #147, .T. ) ;
#252 = EDGE_CURVE ( 'NONE', #3, #227, #343, .T. ) ;
#253 = LENGTH_MEASURE_WITH_UNIT ( LENGTH_MEASURE( 0.02539999999999999900 ), #265 );
#254 = LINE ( 'NONE', #332, #224 ) ;
#255 =( GEOMETRIC_REPRESENTATION_CONTEXT ( 3 ) GLOBAL_UNCERTAINTY_ASSIGNED_CONTEXT ( ( #340 ) ) GLOBAL_UNIT_ASSIGNED_CONTEXT ( ( #55, #269, #84 ) ) REPRESENTATION_CONTEXT ( 'NONE', 'WORKASPACE' ) );
#256 = EDGE_CURVE ( 'NONE', #75, #31, #11, .T. ) ;
#257 = DIRECTION ( 'NONE',  ( -0.5000000000000004400, 0.8660254037844383700, 0.0000000000000000000 ) ) ;
#258 = MECHANICAL_DESIGN_GEOMETRIC_PRESENTATION_REPRESENTATION (  '', ( #273 ), #255 ) ;
#259 = ORIENTED_EDGE ( 'NONE', *, *, #123, .T. ) ;
#260 = LINE ( 'NONE', #322, #143 ) ;
#261 = CYLINDRICAL_SURFACE ( 'NONE', #45, 0.3125000000000000000 ) ;
#262 = EDGE_CURVE ( 'NONE', #56, #75, #156, .T. ) ;
#263 = PRESENTATION_LAYER_ASSIGNMENT (  '', '', ( #273 ) ) ;
#264 = VERTEX_POINT ( 'NONE', #283 ) ;
#265 =( LENGTH_UNIT ( ) NAMED_UNIT ( * ) SI_UNIT ( $, .METRE. ) );
#266 = DIRECTION ( 'NONE',  ( 1.000000000000000000, 0.0000000000000000000, 0.0000000000000000000 ) ) ;
#267 = DIRECTION ( 'NONE',  ( 0.0000000000000000000, 0.0000000000000000000, 1.000000000000000000 ) ) ;
#268 = DIRECTION ( 'NONE',  ( -1.536266079084936400E-016, 1.000000000000000000, 0.0000000000000000000 ) ) ;
#269 =( NAMED_UNIT ( * ) PLANE_ANGLE_UNIT ( ) SI_UNIT ( $, .RADIAN. ) );
#270 = EDGE_CURVE ( 'NONE', #171, #91, #85, .T. ) ;
#271 = VERTEX_POINT ( 'NONE', #345 ) ;
#272 = ORIENTED_EDGE ( 'NONE', *, *, #300, .T. ) ;
#273 = STYLED_ITEM ( 'NONE', ( #142 ), #176 ) ;
#274 = FACE_OUTER_BOUND ( 'NONE', #208, .T. ) ;
#275 = EDGE_CURVE ( 'NONE', #92, #171, #281, .T. ) ;
#276 = CARTESIAN_POINT ( 'NONE',  ( -0.1111399268190030300, 0.1925000000000000600, 0.06250000000000000000 ) ) ;
#277 = EDGE_LOOP ( 'NONE', ( #226, #214, #86, #212 ) ) ;
#278 = SURFACE_SIDE_STYLE ('',( #78 ) ) ;
#279 = FACE_OUTER_BOUND ( 'NONE', #182, .T. ) ;
#280 = ORIENTED_EDGE ( 'NONE', *, *, #185, .T. ) ;
#281 = LINE ( 'NONE', #223, #164 ) ;
#282 = PRODUCT_DEFINITION_SHAPE ( 'NONE', 'NONE',  #218 ) ;
#283 = CARTESIAN_POINT ( 'NONE',  ( 0.3125000000000000000, 3.827021247335478900E-017, -0.06250000000000000000 ) ) ;
#284 =( GEOMETRIC_REPRESENTATION_CONTEXT ( 3 ) GLOBAL_UNCERTAINTY_ASSIGNED_CONTEXT ( ( #79 ) ) GLOBAL_UNIT_ASSIGNED_CONTEXT ( ( #81, #296, #109 ) ) REPRESENTATION_CONTEXT ( 'NONE', 'WORKASPACE' ) );
#285 = ORIENTED_EDGE ( 'NONE', *, *, #113, .T. ) ;
#286 = FACE_OUTER_BOUND ( 'NONE', #112, .T. ) ;
#287 = DIRECTION ( 'NONE',  ( 0.8660254037844387100, 0.5000000000000001100, -0.0000000000000000000 ) ) ;
#288 = EDGE_CURVE ( 'NONE', #132, #56, #350, .T. ) ;
#289 = ORIENTED_EDGE ( 'NONE', *, *, #270, .T. ) ;
#290 =( GEOMETRIC_REPRESENTATION_CONTEXT ( 3 ) GLOBAL_UNCERTAINTY_ASSIGNED_CONTEXT ( ( #107 ) ) GLOBAL_UNIT_ASSIGNED_CONTEXT ( ( #120, #324, #151 ) ) REPRESENTATION_CONTEXT ( 'NONE', 'WORKASPACE' ) );
#291 = CYLINDRICAL_SURFACE ( 'NONE', #314, 0.3125000000000000000 ) ;
#292 = DIRECTION ( 'NONE',  ( 0.5000000000000000000, -0.8660254037844386000, 0.0000000000000000000 ) ) ;
#293 = EDGE_CURVE ( 'NONE', #207, #264, #25, .T. ) ;
#294 = MECHANICAL_DESIGN_GEOMETRIC_PRESENTATION_REPRESENTATION (  '', ( #308 ), #290 ) ;
#295 = MANIFOLD_SOLID_BREP ( 'Boss-Extrude1', #36 ) ;
#296 =( NAMED_UNIT ( * ) PLANE_ANGLE_UNIT ( ) SI_UNIT ( $, .RADIAN. ) );
#297 = DIRECTION ( 'NONE',  ( 1.000000000000000000, 1.536266079084936400E-016, 0.0000000000000000000 ) ) ;
#298 = VECTOR ( 'NONE', #225, 39.37007874015748100 ) ;
#299 = DIRECTION ( 'NONE',  ( 0.0000000000000000000, 0.0000000000000000000, 1.000000000000000000 ) ) ;
#300 = EDGE_CURVE ( 'NONE', #91, #271, #23, .T. ) ;
#301 = ORIENTED_EDGE ( 'NONE', *, *, #123, .F. ) ;
#302 = PRESENTATION_LAYER_ASSIGNMENT (  '', '', ( #308 ) ) ;
#303 = CARTESIAN_POINT ( 'NONE',  ( 0.1111399268190028500, 0.1925000000000000900, 0.06250000000000000000 ) ) ;
#304 =( LENGTH_UNIT ( ) NAMED_UNIT ( * ) SI_UNIT ( $, .METRE. ) );
#305 = COLOUR_RGB ( '',0.4941176470588235500, 0.4941176470588235500, 0.4941176470588235500 ) ;
#306 = LINE ( 'NONE', #329, #298 ) ;
#307 = CARTESIAN_POINT ( 'NONE',  ( 0.1111399268190028500, 0.1925000000000000900, -0.06250000000000000000 ) ) ;
#308 = STYLED_ITEM ( 'NONE', ( #98 ), #295 ) ;
#309 = DIRECTION ( 'NONE',  ( -1.000000000000000000, -1.536266079084936900E-016, 0.0000000000000000000 ) ) ;
#310 = AXIS2_PLACEMENT_3D ( 'NONE', #32, #250, #63 ) ;
#311 = DIMENSIONAL_EXPONENTS ( 1.000000000000000000, 0.0000000000000000000, 0.0000000000000000000, 0.0000000000000000000, 0.0000000000000000000, 0.0000000000000000000, 0.0000000000000000000 ) ;
#312 = CARTESIAN_POINT ( 'NONE',  ( 0.1111399268190029600, -0.1925000000000000900, -0.06250000000000000000 ) ) ;
#313 = LINE ( 'NONE', #131, #334 ) ;
#314 = AXIS2_PLACEMENT_3D ( 'NONE', #8, #150, #51 ) ;
#315 = CARTESIAN_POINT ( 'NONE',  ( 0.2222798536380059300, 6.082630298393085800E-017, -0.06250000000000000000 ) ) ;
#316 = DIRECTION ( 'NONE',  ( 0.0000000000000000000, 0.0000000000000000000, 1.000000000000000000 ) ) ;
#317 = DIRECTION ( 'NONE',  ( 1.000000000000000000, 0.0000000000000000000, 0.0000000000000000000 ) ) ;
#318 = VECTOR ( 'NONE', #61, 39.37007874015748100 ) ;
#319 = AXIS2_PLACEMENT_3D ( 'NONE', #237, #52, #266 ) ;
#320 = PLANE ( 'NONE',  #76 ) ;
#321 = CARTESIAN_POINT ( 'NONE',  ( -0.1111399268190029600, -0.1925000000000001400, 0.06250000000000000000 ) ) ;
#322 = CARTESIAN_POINT ( 'NONE',  ( 0.3125000000000000000, 3.827021247335478900E-017, 0.06250000000000000000 ) ) ;
#323 = CIRCLE ( 'NONE', #33, 0.3125000000000000000 ) ;
#324 =( NAMED_UNIT ( * ) PLANE_ANGLE_UNIT ( ) SI_UNIT ( $, .RADIAN. ) );
#325 = AXIS2_PLACEMENT_3D ( 'NONE', #148, #28, #248 ) ;
#326 = VECTOR ( 'NONE', #257, 39.37007874015748100 ) ;
#327 = FACE_OUTER_BOUND ( 'NONE', #99, .T. ) ;
#328 = CARTESIAN_POINT ( 'NONE',  ( 0.0000000000000000000, 0.0000000000000000000, -0.06250000000000000000 ) ) ;
#329 = CARTESIAN_POINT ( 'NONE',  ( 0.1111399268190029600, -0.1925000000000000900, 0.06250000000000000000 ) ) ;
#330 = AXIS2_PLACEMENT_3D ( 'NONE', #110, #316, #139 ) ;
#331 = CARTESIAN_POINT ( 'NONE',  ( -0.1111399268190030300, 0.1925000000000000600, -0.06250000000000000000 ) ) ;
#332 = CARTESIAN_POINT ( 'NONE',  ( -0.3125000000000000000, 0.0000000000000000000, 0.06250000000000000000 ) ) ;
#333 = ORIENTED_EDGE ( 'NONE', *, *, #235, .F. ) ;
#334 = VECTOR ( 'NONE', #162, 39.37007874015748100 ) ;
#335 = AXIS2_PLACEMENT_3D ( 'NONE', #42, #163, #348 ) ;
#336 = DIRECTION ( 'NONE',  ( -0.0000000000000000000, -0.0000000000000000000, -1.000000000000000000 ) ) ;
#337 = PLANE ( 'NONE',  #35 ) ;
#338 = DIRECTION ( 'NONE',  ( 1.000000000000000000, 0.0000000000000000000, -0.0000000000000000000 ) ) ;
#339 = LINE ( 'NONE', #249, #196 ) ;
#340 = UNCERTAINTY_MEASURE_WITH_UNIT (LENGTH_MEASURE( 1.000000000000000100E-005 ), #55, 'distance_accuracy_value', 'NONE');
#341 = CIRCLE ( 'NONE', #330, 0.3125000000000000000 ) ;
#342 = APPLICATION_CONTEXT ( 'automotive_design' ) ;
#343 = LINE ( 'NONE', #82, #232 ) ;
#344 = CARTESIAN_POINT ( 'NONE',  ( 0.1111399268190029600, -0.1925000000000000900, 0.06250000000000000000 ) ) ;
#345 = CARTESIAN_POINT ( 'NONE',  ( 0.1111399268190028500, 0.1925000000000000900, -0.06250000000000000000 ) ) ;
#346 = VECTOR ( 'NONE', #15, 39.37007874015748100 ) ;
#347 = AXIS2_PLACEMENT_3D ( 'NONE', #71, #287, #100 ) ;
#348 = DIRECTION ( 'NONE',  ( -0.4999999999999996100, -0.8660254037844388200, 0.0000000000000000000 ) ) ;
#349 = FACE_OUTER_BOUND ( 'NONE', #166, .T. ) ;
#350 = LINE ( 'NONE', #189, #37 ) ;
#351 = CARTESIAN_POINT ( 'NONE',  ( -0.2222798536380059800, -6.829619984160656800E-017, -0.06250000000000000000 ) ) ;
ENDSEC;
END-ISO-10303-21;
