ISO-10303-21;
HEADER;
FILE_DESCRIPTION (( 'STEP AP214' ),
    '1' );
FILE_NAME ('217-2762 Release.STEP',
    '2014-01-23T23:08:41',
    ( '' ),
    ( '' ),
    'SwSTEP 2.0',
    'SolidWorks 2013',
    '' );
FILE_SCHEMA (( 'AUTOMOTIVE_DESIGN' ));
ENDSEC;

DATA;
#1 = AXIS2_PLACEMENT_3D ( 'NONE', #88, #106, #68 ) ;
#2 = LENGTH_MEASURE_WITH_UNIT ( LENGTH_MEASURE( 0.02539999999999999900 ), #197 );
#3 = ORIENTED_EDGE ( 'NONE', *, *, #157, .F. ) ;
#4 = ADVANCED_FACE ( 'NONE', ( #9, #219 ), #172, .F. ) ;
#5 = APPLICATION_CONTEXT ( 'automotive_design' ) ;
#6 = ORIENTED_EDGE ( 'NONE', *, *, #113, .F. ) ;
#7 = DIRECTION ( 'NONE',  ( 0.0000000000000000000, 0.0000000000000000000, 1.000000000000000000 ) ) ;
#8 = ORIENTED_EDGE ( 'NONE', *, *, #169, .F. ) ;
#9 = FACE_OUTER_BOUND ( 'NONE', #53, .T. ) ;
#10 = CARTESIAN_POINT ( 'NONE',  ( 0.2490000000000000000, 3.049370529876908900E-017, 18.00000000000000400 ) ) ;
#11 = COLOUR_RGB ( '',0.8666666666666667000, 0.9098039215686274400, 1.000000000000000000 ) ;
#12 = CARTESIAN_POINT ( 'NONE',  ( 0.1290000000000000300, 1.579794370900085500E-017, 18.00000000000000400 ) ) ;
#13 = AXIS2_PLACEMENT_3D ( 'NONE', #179, #145, #52 ) ;
#14 = CARTESIAN_POINT ( 'NONE',  ( 0.0000000000000000000, 0.0000000000000000000, -18.00000000000000400 ) ) ;
#15 = CARTESIAN_POINT ( 'NONE',  ( 0.1290000000000000300, 1.579794370900085500E-017, 18.00000000000000400 ) ) ;
#16 = AXIS2_PLACEMENT_3D ( 'NONE', #93, #167, #166 ) ;
#17 = DIRECTION ( 'NONE',  ( 1.000000000000000000, 0.0000000000000000000, 0.0000000000000000000 ) ) ;
#18 = CLOSED_SHELL ( 'NONE', ( #70, #58, #126, #4, #131, #38 ) ) ;
#19 = SURFACE_STYLE_USAGE ( .BOTH. , #21 ) ;
#20 = PRODUCT_DEFINITION_CONTEXT ( 'detailed design', #150, 'design' ) ;
#21 = SURFACE_SIDE_STYLE ('',( #215 ) ) ;
#22 = FILL_AREA_STYLE ('',( #210 ) ) ;
#23 = CARTESIAN_POINT ( 'NONE',  ( 0.0000000000000000000, 0.0000000000000000000, 18.00000000000000400 ) ) ;
#24 = CARTESIAN_POINT ( 'NONE',  ( 0.0000000000000000000, 0.0000000000000000000, -18.00000000000000400 ) ) ;
#25 = DIRECTION ( 'NONE',  ( -0.0000000000000000000, -0.0000000000000000000, -1.000000000000000000 ) ) ;
#26 = PRESENTATION_STYLE_ASSIGNMENT (( #204 ) ) ;
#27 = AXIS2_PLACEMENT_3D ( 'NONE', #112, #159, #50 ) ;
#28 = AXIS2_PLACEMENT_3D ( 'NONE', #24, #7, #17 ) ;
#29 = SURFACE_STYLE_FILL_AREA ( #30 ) ;
#30 = FILL_AREA_STYLE ('',( #47 ) ) ;
#31 = UNCERTAINTY_MEASURE_WITH_UNIT (LENGTH_MEASURE( 1.000000000000000100E-005 ), #115, 'distance_accuracy_value', 'NONE');
#32 = DIRECTION ( 'NONE',  ( 0.0000000000000000000, 0.0000000000000000000, 1.000000000000000000 ) ) ;
#33 = CARTESIAN_POINT ( 'NONE',  ( -0.1290000000000000300, 0.0000000000000000000, 18.00000000000000400 ) ) ;
#34 = DIRECTION ( 'NONE',  ( 0.0000000000000000000, 0.0000000000000000000, 1.000000000000000000 ) ) ;
#35 = CARTESIAN_POINT ( 'NONE',  ( -0.2490000000000000000, 0.0000000000000000000, 18.00000000000000400 ) ) ;
#36 = VERTEX_POINT ( 'NONE', #217 ) ;
#37 = SHAPE_DEFINITION_REPRESENTATION ( #94, #71 ) ;
#38 = ADVANCED_FACE ( 'NONE', ( #163 ), #147, .F. ) ;
#39 = VECTOR ( 'NONE', #146, 39.37007874015748100 ) ;
#40 = EDGE_CURVE ( 'NONE', #184, #200, #152, .T. ) ;
#41 = DIMENSIONAL_EXPONENTS ( 1.000000000000000000, 0.0000000000000000000, 0.0000000000000000000, 0.0000000000000000000, 0.0000000000000000000, 0.0000000000000000000, 0.0000000000000000000 ) ;
#42 = PRESENTATION_LAYER_ASSIGNMENT (  '', '', ( #78 ) ) ;
#43 = ORIENTED_EDGE ( 'NONE', *, *, #40, .T. ) ;
#44 = VECTOR ( 'NONE', #65, 39.37007874015748100 ) ;
#45 = AXIS2_PLACEMENT_3D ( 'NONE', #23, #117, #118 ) ;
#46 = PLANE ( 'NONE',  #27 ) ;
#47 = FILL_AREA_STYLE_COLOUR ( '', #69 ) ;
#48 = EDGE_CURVE ( 'NONE', #36, #189, #168, .T. ) ;
#49 = LINE ( 'NONE', #15, #39 ) ;
#50 = DIRECTION ( 'NONE',  ( 1.000000000000000000, 0.0000000000000000000, -0.0000000000000000000 ) ) ;
#51 = CARTESIAN_POINT ( 'NONE',  ( -0.1290000000000000300, 0.0000000000000000000, -18.00000000000000400 ) ) ;
#52 = DIRECTION ( 'NONE',  ( 1.000000000000000000, 0.0000000000000000000, 0.0000000000000000000 ) ) ;
#53 = EDGE_LOOP ( 'NONE', ( #223, #77 ) ) ;
#54 = ORIENTED_EDGE ( 'NONE', *, *, #169, .T. ) ;
#55 = EDGE_LOOP ( 'NONE', ( #148, #178, #209, #108 ) ) ;
#56 =( GEOMETRIC_REPRESENTATION_CONTEXT ( 3 ) GLOBAL_UNCERTAINTY_ASSIGNED_CONTEXT ( ( #31 ) ) GLOBAL_UNIT_ASSIGNED_CONTEXT ( ( #115, #213, #199 ) ) REPRESENTATION_CONTEXT ( 'NONE', 'WORKASPACE' ) );
#57 = CYLINDRICAL_SURFACE ( 'NONE', #136, 0.2490000000000000000 ) ;
#58 = ADVANCED_FACE ( 'NONE', ( #156 ), #132, .T. ) ;
#59 = VERTEX_POINT ( 'NONE', #35 ) ;
#60 = DIRECTION ( 'NONE',  ( -1.000000000000000000, 0.0000000000000000000, 0.0000000000000000000 ) ) ;
#61 = CIRCLE ( 'NONE', #1, 0.2490000000000000000 ) ;
#62 = AXIS2_PLACEMENT_3D ( 'NONE', #14, #125, #109 ) ;
#63 = ORIENTED_EDGE ( 'NONE', *, *, #95, .T. ) ;
#64 = DIRECTION ( 'NONE',  ( -1.000000000000000000, 0.0000000000000000000, 0.0000000000000000000 ) ) ;
#65 = DIRECTION ( 'NONE',  ( -0.0000000000000000000, -0.0000000000000000000, -1.000000000000000000 ) ) ;
#66 = CARTESIAN_POINT ( 'NONE',  ( 0.0000000000000000000, 0.0000000000000000000, 18.00000000000000400 ) ) ;
#67 = PRODUCT ( '217-2762 Release', '217-2762 Release', '', ( #151 ) ) ;
#68 = DIRECTION ( 'NONE',  ( 1.000000000000000000, 0.0000000000000000000, 0.0000000000000000000 ) ) ;
#69 = COLOUR_RGB ( '',0.8666666666666667000, 0.9098039215686274400, 1.000000000000000000 ) ;
#70 = ADVANCED_FACE ( 'NONE', ( #138 ), #124, .F. ) ;
#71 = ADVANCED_BREP_SHAPE_REPRESENTATION ( '217-2762 Release', ( #180, #16 ), #56 ) ;
#72 = LINE ( 'NONE', #87, #44 ) ;
#73 = CIRCLE ( 'NONE', #62, 0.1290000000000000300 ) ;
#74 =( GEOMETRIC_REPRESENTATION_CONTEXT ( 3 ) GLOBAL_UNCERTAINTY_ASSIGNED_CONTEXT ( ( #127 ) ) GLOBAL_UNIT_ASSIGNED_CONTEXT ( ( #206, #141, #128 ) ) REPRESENTATION_CONTEXT ( 'NONE', 'WORKASPACE' ) );
#75 = EDGE_LOOP ( 'NONE', ( #6, #155, #135, #97 ) ) ;
#76 = DIRECTION ( 'NONE',  ( 1.000000000000000000, 0.0000000000000000000, 0.0000000000000000000 ) ) ;
#77 = ORIENTED_EDGE ( 'NONE', *, *, #48, .F. ) ;
#78 = STYLED_ITEM ( 'NONE', ( #208 ), #71 ) ;
#79 = EDGE_CURVE ( 'NONE', #200, #184, #129, .T. ) ;
#80 = ORIENTED_EDGE ( 'NONE', *, *, #40, .F. ) ;
#81 = DIRECTION ( 'NONE',  ( -0.0000000000000000000, -0.0000000000000000000, -1.000000000000000000 ) ) ;
#82 = CARTESIAN_POINT ( 'NONE',  ( 0.2490000000000000000, 3.049370529876908900E-017, 18.00000000000000400 ) ) ;
#83 = EDGE_CURVE ( 'NONE', #189, #36, #134, .T. ) ;
#84 = MECHANICAL_DESIGN_GEOMETRIC_PRESENTATION_REPRESENTATION (  '', ( #194 ), #74 ) ;
#85 = DIRECTION ( 'NONE',  ( 1.000000000000000000, 0.0000000000000000000, 0.0000000000000000000 ) ) ;
#86 = FACE_BOUND ( 'NONE', #193, .T. ) ;
#87 = CARTESIAN_POINT ( 'NONE',  ( -0.2490000000000000000, 0.0000000000000000000, 18.00000000000000400 ) ) ;
#88 = CARTESIAN_POINT ( 'NONE',  ( 0.0000000000000000000, 0.0000000000000000000, 18.00000000000000400 ) ) ;
#89 = AXIS2_PLACEMENT_3D ( 'NONE', #66, #81, #64 ) ;
#90 = VECTOR ( 'NONE', #177, 39.37007874015748100 ) ;
#91 = ORIENTED_EDGE ( 'NONE', *, *, #121, .T. ) ;
#92 = ORIENTED_EDGE ( 'NONE', *, *, #181, .T. ) ;
#93 = CARTESIAN_POINT ( 'NONE',  ( 0.0000000000000000000, 0.0000000000000000000, 0.0000000000000000000 ) ) ;
#94 = PRODUCT_DEFINITION_SHAPE ( 'NONE', 'NONE',  #96 ) ;
#95 = EDGE_CURVE ( 'NONE', #200, #195, #173, .T. ) ;
#96 = PRODUCT_DEFINITION ( 'UNKNOWN', '', #154, #20 ) ;
#97 = ORIENTED_EDGE ( 'NONE', *, *, #83, .T. ) ;
#98 = CARTESIAN_POINT ( 'NONE',  ( 0.0000000000000000000, 0.0000000000000000000, -18.00000000000000400 ) ) ;
#99 = DIRECTION ( 'NONE',  ( 0.0000000000000000000, 0.0000000000000000000, 1.000000000000000000 ) ) ;
#100 = DIRECTION ( 'NONE',  ( 0.0000000000000000000, 0.0000000000000000000, 1.000000000000000000 ) ) ;
#101 = VERTEX_POINT ( 'NONE', #82 ) ;
#102 = CARTESIAN_POINT ( 'NONE',  ( 0.0000000000000000000, 0.0000000000000000000, 18.00000000000000400 ) ) ;
#103 = LINE ( 'NONE', #10, #90 ) ;
#104 = LENGTH_MEASURE_WITH_UNIT ( LENGTH_MEASURE( 0.02539999999999999900 ), #214 );
#105 = AXIS2_PLACEMENT_3D ( 'NONE', #102, #100, #76 ) ;
#106 = DIRECTION ( 'NONE',  ( 0.0000000000000000000, 0.0000000000000000000, 1.000000000000000000 ) ) ;
#107 = CARTESIAN_POINT ( 'NONE',  ( 0.0000000000000000000, 0.0000000000000000000, 18.00000000000000400 ) ) ;
#108 = ORIENTED_EDGE ( 'NONE', *, *, #161, .F. ) ;
#109 = DIRECTION ( 'NONE',  ( 1.000000000000000000, 0.0000000000000000000, 0.0000000000000000000 ) ) ;
#110 = DIRECTION ( 'NONE',  ( 0.0000000000000000000, 0.0000000000000000000, 1.000000000000000000 ) ) ;
#111 = FACE_OUTER_BOUND ( 'NONE', #202, .T. ) ;
#112 = CARTESIAN_POINT ( 'NONE',  ( 0.0000000000000000000, 0.0000000000000000000, 18.00000000000000400 ) ) ;
#113 = EDGE_CURVE ( 'NONE', #101, #36, #103, .T. ) ;
#114 = AXIS2_PLACEMENT_3D ( 'NONE', #130, #110, #85 ) ;
#115 =( CONVERSION_BASED_UNIT ( 'INCH', #2 ) LENGTH_UNIT ( ) NAMED_UNIT ( #133 ) );
#116 = VECTOR ( 'NONE', #191, 39.37007874015748100 ) ;
#117 = DIRECTION ( 'NONE',  ( -0.0000000000000000000, -0.0000000000000000000, -1.000000000000000000 ) ) ;
#118 = DIRECTION ( 'NONE',  ( -1.000000000000000000, 0.0000000000000000000, 0.0000000000000000000 ) ) ;
#119 = CARTESIAN_POINT ( 'NONE',  ( 0.0000000000000000000, 0.0000000000000000000, 18.00000000000000400 ) ) ;
#120 = FACE_OUTER_BOUND ( 'NONE', #75, .T. ) ;
#121 = EDGE_CURVE ( 'NONE', #101, #59, #140, .T. ) ;
#122 = DIMENSIONAL_EXPONENTS ( 1.000000000000000000, 0.0000000000000000000, 0.0000000000000000000, 0.0000000000000000000, 0.0000000000000000000, 0.0000000000000000000, 0.0000000000000000000 ) ;
#123 = CIRCLE ( 'NONE', #114, 0.1290000000000000300 ) ;
#124 = CYLINDRICAL_SURFACE ( 'NONE', #89, 0.1290000000000000300 ) ;
#125 = DIRECTION ( 'NONE',  ( 0.0000000000000000000, 0.0000000000000000000, 1.000000000000000000 ) ) ;
#126 = ADVANCED_FACE ( 'NONE', ( #111, #86 ), #46, .T. ) ;
#127 = UNCERTAINTY_MEASURE_WITH_UNIT (LENGTH_MEASURE( 1.000000000000000100E-005 ), #206, 'distance_accuracy_value', 'NONE');
#128 =( NAMED_UNIT ( * ) SI_UNIT ( $, .STERADIAN. ) SOLID_ANGLE_UNIT ( ) );
#129 = CIRCLE ( 'NONE', #13, 0.1290000000000000300 ) ;
#130 = CARTESIAN_POINT ( 'NONE',  ( 0.0000000000000000000, 0.0000000000000000000, -18.00000000000000400 ) ) ;
#131 = ADVANCED_FACE ( 'NONE', ( #120 ), #57, .T. ) ;
#132 = CYLINDRICAL_SURFACE ( 'NONE', #221, 0.2490000000000000000 ) ;
#133 = DIMENSIONAL_EXPONENTS ( 1.000000000000000000, 0.0000000000000000000, 0.0000000000000000000, 0.0000000000000000000, 0.0000000000000000000, 0.0000000000000000000, 0.0000000000000000000 ) ;
#134 = CIRCLE ( 'NONE', #192, 0.2490000000000000000 ) ;
#135 = ORIENTED_EDGE ( 'NONE', *, *, #161, .T. ) ;
#136 = AXIS2_PLACEMENT_3D ( 'NONE', #165, #203, #222 ) ;
#137 = EDGE_CURVE ( 'NONE', #59, #101, #61, .T. ) ;
#138 = FACE_OUTER_BOUND ( 'NONE', #182, .T. ) ;
#139 = PRODUCT_RELATED_PRODUCT_CATEGORY ( 'part', '', ( #67 ) ) ;
#140 = CIRCLE ( 'NONE', #207, 0.2490000000000000000 ) ;
#141 =( NAMED_UNIT ( * ) PLANE_ANGLE_UNIT ( ) SI_UNIT ( $, .RADIAN. ) );
#142 = DIRECTION ( 'NONE',  ( 1.000000000000000000, 0.0000000000000000000, 0.0000000000000000000 ) ) ;
#143 =( LENGTH_UNIT ( ) NAMED_UNIT ( * ) SI_UNIT ( $, .METRE. ) );
#144 = ORIENTED_EDGE ( 'NONE', *, *, #95, .F. ) ;
#145 = DIRECTION ( 'NONE',  ( 0.0000000000000000000, 0.0000000000000000000, 1.000000000000000000 ) ) ;
#146 = DIRECTION ( 'NONE',  ( -0.0000000000000000000, -0.0000000000000000000, -1.000000000000000000 ) ) ;
#147 = CYLINDRICAL_SURFACE ( 'NONE', #45, 0.1290000000000000300 ) ;
#148 = ORIENTED_EDGE ( 'NONE', *, *, #121, .F. ) ;
#149 = APPLICATION_PROTOCOL_DEFINITION ( 'draft international standard', 'automotive_design', 1998, #150 ) ;
#150 = APPLICATION_CONTEXT ( 'automotive_design' ) ;
#151 = PRODUCT_CONTEXT ( 'NONE', #5, 'mechanical' ) ;
#152 = CIRCLE ( 'NONE', #105, 0.1290000000000000300 ) ;
#153 = DIRECTION ( 'NONE',  ( 1.000000000000000000, 0.0000000000000000000, -0.0000000000000000000 ) ) ;
#154 = PRODUCT_DEFINITION_FORMATION_WITH_SPECIFIED_SOURCE ( 'ANY', '', #67, .NOT_KNOWN. ) ;
#155 = ORIENTED_EDGE ( 'NONE', *, *, #137, .F. ) ;
#156 = FACE_OUTER_BOUND ( 'NONE', #55, .T. ) ;
#157 = EDGE_CURVE ( 'NONE', #196, #195, #73, .T. ) ;
#158 = CARTESIAN_POINT ( 'NONE',  ( -0.1290000000000000300, 0.0000000000000000000, 18.00000000000000400 ) ) ;
#159 = DIRECTION ( 'NONE',  ( 0.0000000000000000000, 0.0000000000000000000, 1.000000000000000000 ) ) ;
#160 = CARTESIAN_POINT ( 'NONE',  ( -0.2490000000000000000, 0.0000000000000000000, -18.00000000000000400 ) ) ;
#161 = EDGE_CURVE ( 'NONE', #59, #189, #72, .T. ) ;
#162 =( GEOMETRIC_REPRESENTATION_CONTEXT ( 3 ) GLOBAL_UNCERTAINTY_ASSIGNED_CONTEXT ( ( #174 ) ) GLOBAL_UNIT_ASSIGNED_CONTEXT ( ( #198, #185, #183 ) ) REPRESENTATION_CONTEXT ( 'NONE', 'WORKASPACE' ) );
#163 = FACE_OUTER_BOUND ( 'NONE', #175, .T. ) ;
#164 = CARTESIAN_POINT ( 'NONE',  ( 0.1290000000000000300, 1.579794370900085500E-017, -18.00000000000000400 ) ) ;
#165 = CARTESIAN_POINT ( 'NONE',  ( 0.0000000000000000000, 0.0000000000000000000, 18.00000000000000400 ) ) ;
#166 = DIRECTION ( 'NONE',  ( 1.000000000000000000, 0.0000000000000000000, 0.0000000000000000000 ) ) ;
#167 = DIRECTION ( 'NONE',  ( 0.0000000000000000000, 0.0000000000000000000, 1.000000000000000000 ) ) ;
#168 = CIRCLE ( 'NONE', #28, 0.2490000000000000000 ) ;
#169 = EDGE_CURVE ( 'NONE', #184, #196, #49, .T. ) ;
#170 = LENGTH_MEASURE_WITH_UNIT ( LENGTH_MEASURE( 0.02539999999999999900 ), #143 );
#171 = AXIS2_PLACEMENT_3D ( 'NONE', #98, #99, #153 ) ;
#172 = PLANE ( 'NONE',  #171 ) ;
#173 = LINE ( 'NONE', #158, #116 ) ;
#174 = UNCERTAINTY_MEASURE_WITH_UNIT (LENGTH_MEASURE( 1.000000000000000100E-005 ), #198, 'distance_accuracy_value', 'NONE');
#175 = EDGE_LOOP ( 'NONE', ( #8, #43, #63, #3 ) ) ;
#176 = SURFACE_SIDE_STYLE ('',( #29 ) ) ;
#177 = DIRECTION ( 'NONE',  ( -0.0000000000000000000, -0.0000000000000000000, -1.000000000000000000 ) ) ;
#178 = ORIENTED_EDGE ( 'NONE', *, *, #113, .T. ) ;
#179 = CARTESIAN_POINT ( 'NONE',  ( 0.0000000000000000000, 0.0000000000000000000, 18.00000000000000400 ) ) ;
#180 = MANIFOLD_SOLID_BREP ( 'Boss-Extrude1', #18 ) ;
#181 = EDGE_CURVE ( 'NONE', #195, #196, #123, .T. ) ;
#182 = EDGE_LOOP ( 'NONE', ( #216, #54, #218, #144 ) ) ;
#183 =( NAMED_UNIT ( * ) SI_UNIT ( $, .STERADIAN. ) SOLID_ANGLE_UNIT ( ) );
#184 = VERTEX_POINT ( 'NONE', #12 ) ;
#185 =( NAMED_UNIT ( * ) PLANE_ANGLE_UNIT ( ) SI_UNIT ( $, .RADIAN. ) );
#186 = APPLICATION_PROTOCOL_DEFINITION ( 'draft international standard', 'automotive_design', 1998, #5 ) ;
#187 = ORIENTED_EDGE ( 'NONE', *, *, #137, .T. ) ;
#188 = EDGE_LOOP ( 'NONE', ( #92, #205 ) ) ;
#189 = VERTEX_POINT ( 'NONE', #160 ) ;
#190 = DIRECTION ( 'NONE',  ( 1.000000000000000000, 0.0000000000000000000, 0.0000000000000000000 ) ) ;
#191 = DIRECTION ( 'NONE',  ( -0.0000000000000000000, -0.0000000000000000000, -1.000000000000000000 ) ) ;
#192 = AXIS2_PLACEMENT_3D ( 'NONE', #220, #34, #142 ) ;
#193 = EDGE_LOOP ( 'NONE', ( #212, #80 ) ) ;
#194 = STYLED_ITEM ( 'NONE', ( #26 ), #180 ) ;
#195 = VERTEX_POINT ( 'NONE', #51 ) ;
#196 = VERTEX_POINT ( 'NONE', #164 ) ;
#197 =( LENGTH_UNIT ( ) NAMED_UNIT ( * ) SI_UNIT ( $, .METRE. ) );
#198 =( CONVERSION_BASED_UNIT ( 'INCH', #104 ) LENGTH_UNIT ( ) NAMED_UNIT ( #122 ) );
#199 =( NAMED_UNIT ( * ) SI_UNIT ( $, .STERADIAN. ) SOLID_ANGLE_UNIT ( ) );
#200 = VERTEX_POINT ( 'NONE', #33 ) ;
#201 = MECHANICAL_DESIGN_GEOMETRIC_PRESENTATION_REPRESENTATION (  '', ( #78 ), #162 ) ;
#202 = EDGE_LOOP ( 'NONE', ( #187, #91 ) ) ;
#203 = DIRECTION ( 'NONE',  ( -0.0000000000000000000, -0.0000000000000000000, -1.000000000000000000 ) ) ;
#204 = SURFACE_STYLE_USAGE ( .BOTH. , #176 ) ;
#205 = ORIENTED_EDGE ( 'NONE', *, *, #157, .T. ) ;
#206 =( CONVERSION_BASED_UNIT ( 'INCH', #170 ) LENGTH_UNIT ( ) NAMED_UNIT ( #41 ) );
#207 = AXIS2_PLACEMENT_3D ( 'NONE', #107, #32, #190 ) ;
#208 = PRESENTATION_STYLE_ASSIGNMENT (( #19 ) ) ;
#209 = ORIENTED_EDGE ( 'NONE', *, *, #48, .T. ) ;
#210 = FILL_AREA_STYLE_COLOUR ( '', #11 ) ;
#211 = PRESENTATION_LAYER_ASSIGNMENT (  '', '', ( #194 ) ) ;
#212 = ORIENTED_EDGE ( 'NONE', *, *, #79, .F. ) ;
#213 =( NAMED_UNIT ( * ) PLANE_ANGLE_UNIT ( ) SI_UNIT ( $, .RADIAN. ) );
#214 =( LENGTH_UNIT ( ) NAMED_UNIT ( * ) SI_UNIT ( $, .METRE. ) );
#215 = SURFACE_STYLE_FILL_AREA ( #22 ) ;
#216 = ORIENTED_EDGE ( 'NONE', *, *, #79, .T. ) ;
#217 = CARTESIAN_POINT ( 'NONE',  ( 0.2490000000000000000, 3.049370529876908900E-017, -18.00000000000000400 ) ) ;
#218 = ORIENTED_EDGE ( 'NONE', *, *, #181, .F. ) ;
#219 = FACE_BOUND ( 'NONE', #188, .T. ) ;
#220 = CARTESIAN_POINT ( 'NONE',  ( 0.0000000000000000000, 0.0000000000000000000, -18.00000000000000400 ) ) ;
#221 = AXIS2_PLACEMENT_3D ( 'NONE', #119, #25, #60 ) ;
#222 = DIRECTION ( 'NONE',  ( -1.000000000000000000, 0.0000000000000000000, 0.0000000000000000000 ) ) ;
#223 = ORIENTED_EDGE ( 'NONE', *, *, #83, .F. ) ;
ENDSEC;
END-ISO-10303-21;
